Eric Johnson - Song For George Chords & Tabs

 

Song For George Chords & Tabs

Eric Johnson Chords & Tabs

Version: 1 Type: Tab 0 ratings
1 star 2 stars 3 stars 4 stars 5 stars
comments

Song For George Tab

song for george tab by eric johnson

 classical guitar

the string tuned   MI = RE,    SI = LA ,  mi - re


|-0--------|----5\7--10---<12>---3---0--0--------0---|
|--5-------|----------------------------------3------|
|---0------|------------------------------2p0--------|
|----0-----|----0-------------0------0--------2--0---|
|-----0----|-----------------------------------------|
|------5p0-|-0-------------------0---------------0---|

|---0-----------------------------------|
|---------------------------------------|
|-----------------------<7>-------------|
|-0-------0--------0----<7>-----0---0---|
|-------0------0h3----------------3-----|
|-----3---------------0-----------------|

|----5\7--10---<12>---3---0--0--------0---|
|----------------------------------3------|
|------------------------------2p0--------|
|----0-------------0------0--------2--0---|
|-----------------------------------------|
|-0-------------------0---------------0---|

|---0------------------------|
|----------------------------|
|-----------------------<7>--|
|-0-------0--------0----<7>--|
|-------0------0h3-----------|
|-----3---------------0------|

|----------0----3---0-------------------|
|----3----------------------------------|
|------0--------0---0------0------------|
|----3-------3--------------------------|
|-----------------------------------3---|
|-3------3---------------5---5----------|

|-------7------0------------------|
|---5-8---8-------0-----0---------|
|-5----------------0--------------|
|--------------------5---3---0----|
|---------------------------------|
|------------------------------0--|

|----5\7--10---<12>---3---0--0--------0---|
|------------------------------0---3------|
|--------------------------------0--------|
|----0-------------0------0--------2--0---|
|-----------------------------------------|
|---------------------0---------------0---|

|---0------------------------|
|----------------------------|
|-----------------------<7>--|
|-0---------0-----0-----<7>--|
|--------0-----0h3-----------|
|-----3---------------0------|

|-12-10-----7-7\6-5-----0-3-2-0-----10---0---7-7\6-5---|
|-------12-9--9\8-7----2----------0----8---0-9-9\8-7---|
|-------------------------------0----------------------|
|------------------------------------------------------|
|----0-------------------------------------------------|
|------------------------------------------------------|

|-----------|
|-----------|
|-----------|
|-----0-----|
|-0h3-------|
|-----------|

|----5\7--10---<12>--3----0--0--------0---|
|------------------------------0---3------|
|--------------------------------0--------|
|----0-------------0------0--------2--0---|
|-----------------------------------------|
|-0------------------0----------------0---|

|---0---------------------------------|
|-------------------------------------|
|-----------------------<7>-----------|
|-0---------0------0----<7>---0---0---|
|--------0-----0h3--------------3-----|
|-----3---------------0---------------|

|----5\7--10---<12>--3----0--0--------0---|
|------------------------------0---3------|
|--------------------------------0--------|
|----0-------------0------0--------2--0---|
|-----------------------------------------|
|-0------------------0----------------0---|

|---0------------------------|
|----------------------------|
|-----------------------<7>--|
|-0---------0------0----<7>--|
|--------0-----0h3-----------|
|-----3---------------0------|

|----------0----3---0-------------------|
|----3----------------------------------|
|------0--------0---0------0------------|
|----3-------3--------------------------|
|-----------------------------------3---|
|-3------3---------------5---5----------|

|-------7------0------------------|
|---5-8---8------0-----0----------|
|-5----------------0--------------|
|--------------------5---3---0----|
|---------------------------------|
|-------------------------------0-|

|----5\7--10---<12>----3---0--0--------0---|
|-------------------------------0---3------|
|---------------------------------0--------|
|----0-------------0-------0--------2--0---|
|------------------------------------------|
|----------------------0---------------0---|

|---0------------------------|
|----------------------------|
|-----------------------<7>--|
|-0--------0-------0----<7>--|
|-------0------0h3-----------|
|-----3---------------0------|
[ Tab from: http://www.guitartabs.cc/tabs/e/eric_johnson/song_for_george_tab.html ]
|-12-10-----7-7\6-5-----0-3-2-0------10---0---7-7\6-5---|
|-------12-9--9\8-7---2------------0----8---0-9-9\8-7---|
|--------------------------------0----------------------|
|-------------------------------------------------------|
|----0--------------------------------------------------|
|-------------------------------------------------------|

|--------10------10-10-10\-------10------10-10---------|
|----/12-12-12---12-12-------/12-12-12---12-12-12\-----|
|-----11----11---------------/11----11---------11\-----|
|--------------0-----------------------0---------------|
|------------------------------------------------------|
|-0---------------------------0------------------------|

|-----5p3----5-3-----5p3---3-5/7-----------|
|---------5---------------------8---5-5----|
|------------------5-----5-----------5-----|
|--------------0---------------------------|
|------------------------------------------|
|-0----------------------------------------|

|--------10------10-10-10\-------10------10-10---------|
|----/12-12-12---12-12-------/12-12-12---12-12-12\-----|
|----/11----11---------------/11----11---------11\-----|
|--------------0-----------------------0---------------|
|------------------------------------------------------|
|-0---------------------------0------------------------|

|-----5p3----5-3-----5p3---3-5/7-----------|
|---------5-------5------5------8---5-5----|
|------------------------------------5-----|
|--------------0---------------------------|
|------------------------------------------|
|-0----------------------------------------|

|----------0----3---0-------------------|
|----3----------------------------------|
|------0--------0---0------0------------|
|----3-------3--------------------------|
|-----------------------------------3---|
|-3------3---------------5---5----------|

|-------7------0-------------------|
|---5-8---8-------0-----0----------|
|-5-----------------0--------------|
|---------------------5---3---0----|
|----------------------------------|
|----------------------------------|

|----5\7--10---<12>--3----0--0--------0---|
|------------------------------0---3------|
|--------------------------------0--------|
|----0-------------0------0--------2--0---|
|-----------------------------------------|
|-0------------------0----------------0---|

|---0------------------------|
|----------------------------|
|-----------------------<7>--|
|-0---------0------0----<7>--|
|--------0-----0h3-----------|
|-----3---------------0------|

|-12-10-----7-7\6-5-----0-3-2---0------10---0---7-7\6-5---|
|-------12-9--9\8-7---2-------------0-----8---0-9-9\8-7---|
|---------------------------------0-----------------------|
|---------------------------------------------------------|
|----0----------------------------------------------------|
|---------------------------------------------------------|

|-----0---------0---0-----------------0----------------0----|
|-----0---------0---0-----------------0-------------3-------|
|---------------------0-----------------------------0--0----|
|-----0-0---0-----3-------3p0---0-----0-0---0-----3---------|
|---------3-------------------3-----------3--------------3--|
|-0-----------0---------0---------0-------------0-----------|

|-0---------------|
|-0---------------|
|-----------------|
|-0--------0------|
|------0p3--------|
|-----------------|

|-----0---------0---0-----------------0----------------0----0--|
|-----0---------0---0-----------------0-------------3-------0--|
|---------------------0-----------------------------0--0-------|
|-----0-0---0-----3-------3p0---0-----0-0---0-----3---------0--|
|---------3-------------------3-----------3--------------3-----|
|-0-----------0---------0---------0-------------0--------------|

|----------0----3---0-------------------|
|----3----------------------------------|
|------0--------0---0------0------------|
|----3-------3--------------------------|
|-----------------------------------3---|
|-3------3---------------5---5----------|

|-------7------0------------------|
|---5-8---8------0-----0----------|
|-5----------------0--------------|
|--------------------5---3p0------|
|---------------------------------|
|---------------------------------|

|----5\7--10---<12>---3---0--0--------0---|
|------------------------------0---3------|
|--------------------------------0--------|
|----0-------------0------0--------2--0---|
|-----------------------------------------|
|-0-------------------0---------------0---|

|---0----------------------------0------|
|-------------------------------5-------|
|------------------------------0--------|
|-0--------0-------0----------0----0----|
|-------0------0h3-----------0----0-----|
|-----3---------------0-----5----0------|




steve,  pompom@sympatico.ca
Comments