Eric Johnson - Cliffs Of Dover Chords & Tabs

 

Cliffs Of Dover Chords & Tabs

Eric Johnson Chords & Tabs

Version: 4 Type: Tab 0 ratings
1 star 2 stars 3 stars 4 stars 5 stars
comments

Cliffs Of Dover Tab

It'ud probably really help to have a copy of the album to play along with.

My notation is:

/     a slide
~     vibrato or tremolo--wiggle yer fingers
'     bend the string
h     hammer on
p     pull off
&     Smash yer amp with yer guitar, light the wreckage on fire then dive
      into the audience



In 4/4, with a pretty fast (190 b.p.m. or thereabouts) shuffle-ish beat.

----|------------------------|-----------------------|------------------------|
T---|------------------------|-----------------------|------------------------|
A-16/17-----14-17/16----12-16/14----11-14----11-12-14/16----12-16/14----11-14-|
B---|----14----------12------|---12-------12---------|---12----------12-------|
----|------------------------|-----------------------|------------------------|
----|------------------------|-----------------------|------------------------|


    |----------------
    |----------------
    |-12-11/9----9~~~
    |---------12-----
    |----------------
    |----------------


He does all sorts of pervertations and convolutions on this;  the last
bar is also played:

    |----------------
    |----------------
    |-12-11/9--------
    |---------12-9~~~
    |----------------
    |----------------

-and-

----|------------------------|-----------------------|------------------------|
----|------------------------|------------12~--------|------------------------|
--16/17-----14-17/16----12-16/14----11-14----11-12-14/16----12-16/14----11-14-|
----|----14----------12------|---12------------------|---12----------12-------|
----|------------------------|-----------------------|------------------------|
----|------------------------|-----------------------|------------------------|

    |------------10~~~
    |----------------
    |-12-11/9--------
    |---------12-----
    |----------------
    |----------------



This is my bash at the intro to the song;  I'm afraid that I can differentiate
the different bits into bars--just play the lot as fast as you can.


|--15'--15-12-14----12--------12----------------12-15-14p12----14-12----------
|----------------15----12-15~---15p12-----12-15-------------15-------15p12-15-
|-------------------------------------14'-------------------------------------
|-----------------------------------------------------------------------------
|-----------------------------------------------------------------------------
|-0---------------------------------------------------------------------------

[ Tab from: http://www.guitartabs.cc/tabs/e/eric_johnson/cliffs_of_dover_tab_ver_4.html ]
--12-----------------------------------------------5-7-6-5-----------------
-----15p12----15p12----15p12------------------5--8---------8-5---5-7---5-3-
-----------14-------14'-------14'(14)p12----7------------------7-----4-----
-----------------------------------------14--------------------------------
---------------------------------------------------------------------------
---------------------------------------------------------------------------

---------------------------------------------
-----------------------------------------8'--
--4p2---4p2----------------------------------   Take a deep breath, 
------5-----5-2----5-2-----2-0---------------   then...
-----------------5-----5-2-----2-0-----------
-----------------------------------3'p0------

---------------------7----8/10~--8--------------------------------------------
--------5-----7/8-10---10----------12-------12-------13~----------15-------17-
------------------------------------------------------------------------------
------7-----9----------------------------14-------14-----------17-------17----
--2/3-----5---------------------------10-------12--------12/14-------15-------
------------------------------------------------------------------------------

-----------15~-15----15----15----15----15----15----15----15----15----15----15-
--------19--------19----------------------------17----19----------------------
------------------------19----------------17----------------19----------------
-----19-----------------------19----17----------------------------19----17----
--17--------------------------------------------------------------------------
------------------------------------------------------------------------------

--15----15----15----15----15----15----15----17-15----15-19-17-15----17-15-
-----------17----19----------------17----19-------19-------------19-------
-----17----------------19----17-------------------------------------------
--------------------------------------------------------------------------
--------------------------------------------------------------------------
--------------------------------------------------------------------------

--------------------------------------------------------------------------
--19-15----17-15----------------------------------------------------------
--------17-------17-14----16-14----------16-14----------16-14-------------
-----------------------17-------17-14----------17-14----------17-14-------
--------------------------------------17-------------17-------------17----
-----------------------------------------------------------------------15-
Comments