Eric Clapton - Wonderful Tonight Chords & Tabs

 

Wonderful Tonight Chords & Tabs

Eric Clapton Chords & Tabs

Version: 7 Type: Tab 0 ratings
1 star 2 stars 3 stars 4 stars 5 stars
comments

Wonderful Tonight Tab

   
Transcribed by www.mikesguitarsite.co.uk

Words & Music by Eric Clapton


Gtr I (E A D G B E) - 'lead'
Gtr II (E A D G B E) - 'rhythm'

Intro
  Q=95
 4/4
  Gtr I
  H        A      +E   +E  E  E    +Q    Q    A      +E   +E  E E
|-------------------------------|---------------------------------|
|---------10b12==(12)r(10)p8-10-|-(10)-------10b12==(12)r(10)-8---|
|-------------------------------|-------------------------------9-|
|-------------------------------|---------------------------------|
|-------------------------------|---------------------------------|
|-------------------------------|---------------------------------|
|
| Gtr II
| E E E E          E    E  E  E     E  E E E          E    E  E E
|------------------3------------|---------------------------------|
|-----3-----------------3-----3-|--------3-----------------3------|
|---4---4------------------4----|------2--------------2-------2---|
|-5-----------------------------|---4------4--------------------4-|
|-------------------------------|---------------------------------|
|-------------------------------|---------------------------------|


  +H         A      +E   +E  E  E    +W
|---------------------------------|-------------------|
|-----------10b12==(12)r(10)p8-10-|-(10)--------------|
|-(9)-----------------------------|-------------------|
|---------------------------------|-------------------|
|---------------------------------|-------------------|
|---------------------------------|-------------------|
|
|  E  E E E          E    E  E  E     Q   Q  Q   Q
|---------------------------------|-------------------|
|-------1-----------------1-------|-------0--1--/5----|
|-----0--------------0-------0----|---2---0--2--/5----|
|--2------2---------------------2-|---4---------------|
|---------------------------------|-------------------|
|---------------------------------|-------------------|


  H        A      +E   +E  E  E    +H         A      +E   +E  E E
|-------------------------------|---------------------------------|
|---------10b12==(12)r(10)p8-10-|-(10)-------10b12==(12)r(10)p8---|
|-------------------------------|-------------------------------9-|
|-------------------------------|---------------------------------|
|-------------------------------|---------------------------------|
|-------------------------------|---------------------------------|
|
| E E E E          E    E  E  E     E  E E E          E    E  E E
|------------------3------------|---------------------------------|
|-----3-----------------3-----3-|--------3-----------------3------|
|---4---4------------------4----|------2--------------2-------2---|
|-5-----------------------------|---4------4--------------------4-|
|-------------------------------|---------------------------------|
|-------------------------------|---------------------------------|


  +H         A      +E   +E  Q      Q   A  Q   A  Q   S  E.
|--------------------------------|---------------------------||
|-----------10b12==(12)r(10)p8---|-10--10s12--12h13--15h17---||
|-(9)----------------------------|---------------------------||
|--------------------------------|---------------------------||
|--------------------------------|---------------------------||
|--------------------------------|---------------------------||
|
|  E  E E E          E    E  E E    Q      Q      Q   Q
|---------3----------------------|---------------------------||
|-----3--------------3-----------|---------0------1--/5------||
|-------5-----------------5--0---|--2------0------2--/5------||
|--2---------------------------2-|--4------------------------||
|--------------------------------|---------------------------||
|--------------------------------|---------------------------||


 Verse 1 & 3
  $
   W                W                 W                   W
|-----------------|-----------------|-------------------|-----------------|
|-15--------------|-----------------|-------------------|-----------------|
|-----------------|-----------------|-------------------|-----------------|
|-----------------|-----------------|-------------------|-----------------|
|-----------------|-----------------|-------------------|-----------------|
|-----------------|-----------------|-------------------|-----------------|
|
|  E E E E Q  E E   E E E E E E E E   E E E E +E  E E E   E E E E E E E E
|-----------------|-----------5-----|-------------------|---------5-------|
|----------8------|---------5---5---|-------------------|-----7-----7-----|
|------7------7---|-----7---------7-|-----5-------5-----|-------7-----7-0-|
|----9---9------7-|---7-------------|---5---5-(5)---5---|---7-------------|
|-10--------------|-9-----9---------|-7---------------7-|-5---------------|
|-----------------|-----------------|-------------------|-----------------|


  Gtr II
  E E E E E E E E   E E E E E E E E   E E E E +E  E Q    E E E E E E E E
|---------3-------|---------5-2p0---|------------------|-----5-------0---|
|-----3-----3---3-|-----3---------3-|-----1------------|---------7-----3-|
|---4---4-----4---|---2-------------|---0---0-(0)---0--|---7---7---7-----|
|-5---------------|-4-----4---------|-2-----------5----|-7---------------|
|-----------------|-----------------|------------------|-----------------|
|-----------------|-----------------|------------------|-----------------|


  E E E E +E  E Q    E E E E E E E E   E E E E E E Q    E E E E +E  E Q
|-------3-(3)------|---------5-------|-----7-------5--|-------7-(7)-0----|
|---3---------3----|---5---5---5-----|---------0------|-----0------------|
|-----5---------5--|-----7-------7---|-0-7---7---7----|---7-----------7--|
|------------------|---------------0-|----------------|------------------|
|-3----------------|-5---------------|----------------|-7----------------|
|------------------|-----------------|----------------|------------------|


                            To Coda

  Gtr II
  E E E E E E E E   E E E E Q  E E
|-------3-----0---|---0---2----5---||
|---1-----3-----1-|-----3---3----3-||
|-----0-----0-----|----------------||
|-----------------|-0--------------||
|-3---------------|----------------||
|-----------------|----------------||


  H        A      +E   +E  E  E    +Q    Q    A      +E   +E  E E
|-------------------------------|-----------------------------------|
|---------10b12==(12)r(10)p8-10-|-(10)-------10b12==(12)r(10)-8-----|
|-------------------------------|-------------------------------9---|
|-------------------------------|-----------------------------------|
|-------------------------------|-----------------------------------|
|-------------------------------|-----------------------------------|
|
| E E E E          E    E  E  E     E  E E E          E    E  E E
|------------------3------------|-----------------------------------|
|-----3-----------------3-----3-|--------3-----------------3--------|
|---4---4------------------4----|------2--------------2-------2-----|
|-5-----------------------------|---4------4--------------------4---|
|-------------------------------|-----------------------------------|
|-------------------------------|-----------------------------------|


  +H         A      +E   +E  Q      Q   A  Q   A  Q   S  E.
|--------------------------------|--------------------------||
|-----------10b12==(12)r(10)p8---|-10--10s12--12h13--15h17--||
|-(9)----------------------------|--------------------------||
|--------------------------------|--------------------------||
|--------------------------------|--------------------------||
|--------------------------------|--------------------------||
|
|  E  E E E          E    E  E E    Q      Q      Q   Q
|--------------------------------|--------------------------||
|-------1-----------------1------|---------0------1--/5-----||
|-----0--------------0-------0---|--2------0------2--/5-----||
|--2------2--------------------2-|--4-----------------------||
|--------------------------------|--------------------------||
|--------------------------------|--------------------------||


 Verse 2
Gtr II
  E E E E Q  E E   E E E E E E E E
|-----------------|-----------5------|
|----------8------|---------5---5----|
|------7------7---|-----7---------7--|
|----9---9------7-|---7--------------|
|-10--------------|-9-----9----------|
|-----------------|------------------|



  E E E E +E  E E E   E E E E E E E E   E E E E E E E E   E E E E E E E E
|-------------------|---------5-------|---------3-------|---------5-2p0---|
|-------------------|-----7-----7-----|-----3-----3---3-|-----3---------3-|
|-----5-------5-----|-------7-----7-0-|---4---4-----4---|---2-------------|
|---5---5-(5)---5---|---7-------------|-5---------------|-4-----4---------|
|-7---------------7-|-5---------------|-----------------|-----------------|
|-------------------|-----------------|-----------------|-----------------|


  E E E E +E  E Q    E E E E E E E E   E E E E +E  E Q    E E E E E E E E
|------------------|-----5-------0---|-------3-(3)------|---------5-------|
|-----1------------|---------7-----3-|---3---------3----|---5---5---5-----|
|---0---0-(0)---0--|---7---7---7-----|-----5---------5--|-----7-------7---|
|-2-----------5----|-7---------------|------------------|---------------0-|
|------------------|-----------------|-3----------------|-5---------------|
|------------------|-----------------|------------------|-----------------|

[ Tab from: http://www.guitartabs.cc/tabs/e/eric_clapton/wonderful_tonight_tab_ver_7.html ]
  E E E E E E Q    E E E E +E  E Q    E E E E E E E E   E E E E Q  E E
|-----7-------5--|-------7-(7)-0----|-------3-----0---|---0---2----5---|
|---------0------|-----0------------|---1-----3-----1-|-----3---3----3-|
|-0-7---7---7----|---7-----------7--|-----0-----0-----|----------------|
|----------------|------------------|-----------------|-0--------------|
|----------------|-7----------------|-3---------------|----------------|
|----------------|------------------|-----------------|----------------|


  Gtr I
  Q   E E  E  E  Q       A  Q     Q     A   Q   Q
|---------------10----|-10h12----10----------------||
|-------8-10s12-------|----------------12p=10---8--||
|-----7---------------|----------------------------||
|---------------------|----------------------------||
|---------------------|----------------------------||
|---------------------|----------------------------||
|
| Gtr II
| E E E E  E  E  E  E       E  E  E  E     +Q   Q
|-----7---------10----|----------------------------||
|-------8----------12-|-------10-------------------||
|---7--------12-------|-------------12----(12)-----||
|---------------------|----------12----------------||
|---------------------|----10----------------------||
|---------------------|----------------------------||


 Bridge

  E E E E +E  E Q    E E E E E E Q    E E E E E E E E
|-------3-(3)------|-----5-------5--|-----7-------5----|
|---3---------3----|---------7------|---8-----------5--|
|-----5---------5--|-------7---7----|-7-----7---7------|
|------------------|---7------------|------------------|
|-3----------------|-5--------------|------------------|
|------------------|----------------|------------------|



  E E E E +E  E E E   E E E E +E  E E E
|-------7-(7)-------|-------3-(3)-------|
|-------------8-----|-------------5-----|
|-----7---------9---|-----5---------5-5-|
|---9-------------9-|---5---------------|
|-------------------|-------------------|
|-------------------|-------------------|


  E E E E +E  E Q    E E E E +E  E Q     W
|-------5-(5)------|-------3-(3)------|-^5----||
|---5---------7----|-------------5----|-^7----||
|---------------7--|---5-----------5--|-^7----||
|-----7------------|-----5------------|-^0----||
|-5----------------|-3----------------|-------||
|------------------|------------------|-------||


 Guitar Break
  Gtr I
  H        A      +E   +E  E  E    +H         A      +E   +E  E E
|-------------------------------|---------------------------------|
|---------10b12==(12)r(10)p8-10-|-(10)-------10b12==(12)r(10)p8---|
|-------------------------------|-------------------------------9-|
|-------------------------------|---------------------------------|
|-------------------------------|---------------------------------|
|-------------------------------|---------------------------------|
|
| Gtr II
| E E E E          E    E  E  E     E  E E E          E    E  E E
|------------------3------------|---------------------------------|
|-----3-----------------3-----3-|--------3-----------------3------|
|---4---4------------------4----|------2--------------2-------2---|
|-5-----------------------------|---4------4--------------------4-|
|-------------------------------|---------------------------------|
|-------------------------------|---------------------------------|


  +H         A      +E   +E  Q      Q   A  Q   A  Q   S  E.
|--------------------------------|---------------------------|
|-----------10b12==(12)r(10)p8---|-10--10s12--12h13--15h17---|
|-(9)----------------------------|---------------------------|
|--------------------------------|---------------------------|
|--------------------------------|---------------------------|
|--------------------------------|---------------------------|
|
|  E  E E E          E    E  E E    Q      Q      Q   Q
|--------------------------------|---------------------------|
|-------1-----------------1------|---------0------1--/5------|
|-----0--------------0-------0---|--2------0------2--/5------|
|--2------2--------------------2-|--4------------------------|
|--------------------------------|---------------------------|
|--------------------------------|---------------------------|


   Q.     E  A      +E   +E  E  E    +H         A      +E   +E  E E
|---------------------------------|---------------------------------|
|-15--------10b12==(12)r(10)p8-10-|-(10)-------10b12==(12)r(10)p8---|
|---------------------------------|-------------------------------9-|
|---------------------------------|---------------------------------|
|---------------------------------|---------------------------------|
|---------------------------------|---------------------------------|
|
|  E  E E E          E    E  E  E     E  E E E          E    E  E E
|--------------------3------------|---------------------------------|
|-------3-----------------3-----3-|--------3-----------------3------|
|-----4---4------------------4----|------2--------------2-------2---|
|--5------------------------------|---4------4--------------------4-|
|---------------------------------|---------------------------------|
|---------------------------------|---------------------------------|


                                                             D.S. al Coda
  +H         A      +E   +E  Q     A  Q   A  Q   A  Q   A  Q
|--------------------------------|------------------------------||
|-----------10b12==(12)r(10)p8---|-8h10--10s12--12s13--15h17----||
|-(9)----------------------------|------------------------------||
|--------------------------------|------------------------------||
|--------------------------------|------------------------------||
|--------------------------------|------------------------------||
|
|  E  E E E          E    E  E E      Q      Q      Q      Q
|--------------------------------|------------------------------||
|-------1-----------------1------|-----------0------1-----/5----||
|-----0--------------0-------0---|----2------0------2-----/5----||
|--2------2--------------------2-|----4-------------------------||
|--------------------------------|------------------------------||
|--------------------------------|------------------------------||


  &
  Gtr I
  H        S      +E.    +Q       E  E E E A  E  Q.
|------------------------------|-----------------------|
|---------10b12==(12)---(12)---|-10r10-8---------------|
|------------------------------|---------9-7h=9--7-----|
|------------------------------|-----------------------|
|------------------------------|-----------------------|
|------------------------------|-----------------------|
|
| Gtr II
| E E E E  E          E   E  E    E  E E E   +E  E  Q
|-----7------------------------|---------7---(7)----5--|
|---8--------------------10----|--------------------7--|
|-7-----7--------------------7-|-----7-9---------7-----|
|---------------------7--------|-----------------------|
|----------9-------------------|--7--------------------|
|------------------------------|-----------------------|

Gtr II
  E E E E E E Q    E E E E +E  E Q
|-------------3--|-------5-(5)--------||
|-----3---3------|-------------7------||
|---5---5---0----|-----7---------7----||
|-5--------------|---7----------------||
|----------------|-5------------------||
|----------------|--------------------||


 Outro
   H        A      +E   +E  E  E    +H           E      +E   E  E
|--------------------------------|--------------------------10----|
|----------10b12==(12)r(10)p8-10-|-(12)---------10b12==(12)----12r|
|--------------------------------|--------------------------------|
|--------------------------------|--------------------------------|
|--------------------------------|--------------------------------|
|--------------------------------|--------------------------------|
|
|  E E E E         +E    E  E  E     E  E E  E  +E       E   Q
|--------7---------(7)-----------|--------------------------------|
|---------------------------8----|----------10-(10)---------------|
|------7-----------------7-----7-|--------7------------------7----|
|----9---------------------------|------7----------------7--------|
|-10-----------------------------|---9----------------------------|
|--------------------------------|--------------------------------|


           ~
   Q   E E H          A  Q   A  Q   Q   Q
|------------------|-10s12--10h12--10--12\---|
|-10---8---8-------|-------------------------|
|--------9---------|-------------------------|
|------------------|-------------------------|
|------------------|-------------------------|
|------------------|-------------------------|
|
|  E E E E E E E E       Q      Q   Q   Q
|--------3---------|-------------------------|
|----------3---5---|------------0---1--/5----|
|------5-----5---5-|-----2------0---2--/5----|
|----5-------------|-----4-------------------|
|--7---------------|-------------------------|
|------------------|-------------------------|


  H        A      +E   +E  E  E    +Q    Q    A      +E   +E  E E
|-------------------------------|---------------------------------|
|---------10b12==(12)r(10)p8-10-|-(10)-------10b12==(12)r(10)-8---|
|-------------------------------|-------------------------------9-|
|-------------------------------|---------------------------------|
|-------------------------------|---------------------------------|
|-------------------------------|---------------------------------|
|
| E E E E          E    E  Q        E  E E E          E    E  E E
|-----------------------3-------|----------5----------------------|
|-----3------------3-------3----|---------------------5-------5---|
|---4---4-----------------------|--------7-----------------7----7-|
|-5-----------------------------|------7--------------------------|
|-------------------------------|---9-----------------------------|
|-------------------------------|---------------------------------|


                                                      H.=H
  +H         A      +E   +E  E  E    Q    Q    Q    A  Q     W
|---------------------------------|-----------------------|-------*|
|-----------10b12==(12)r(10)p8-10-|-10s==12---13---15s17--|-15----*|
|-(9)-----------------------------|-----------------------|-------*|
|---------------------------------|-----------------------|-------*|
|---------------------------------|-----------------------|-------*|
|---------------------------------|-----------------------|-------*|
|
|  E  E E E          E    E  E  E    E E  E E  E E     Q     W
|---------3-----------------------|-------0---------------|-------*|
|--------------------3-------5----|--3------3----------1--|--0----*|
|-------5-----------------5-----0-|----2-------2-------2--|--0----*|
|-----5---------------------------|--------------4--------|-------*|
|--7------------------------------|-----------------------|-------*|
|---------------------------------|-----------------------|-------*|
Comments