Eric Clapton - Sunshine Of Your Love Chords & Tabs

 

Sunshine Of Your Love Chords & Tabs

Eric Clapton Chords & Tabs

Version: 2 Type: Bass Tab 0 ratings
1 star 2 stars 3 stars 4 stars 5 stars
comments

Sunshine Of Your Love Bass Tab

INTRO

|--------------------10-10---|  
|------------12-11-10--8-----|
|-12-12-10-12----------------|
|----------------------------| 

VERSE

|--------------------10-8-10-|  
|------------12-11-10--------|
|-12-12-10-12----------------|
|----------------------------| 4x

|----------------------------|
|--------------------10-8-10-|  
|------------12-11-10--------|
|-12-12-10-12----------------| 2x

|--------------------10-8-10-|  
|------------12-11-10--------|
|-12-12-10-12----------------|
|----------------------------| 2x

CHORUS

I.
|-5-5-----------3-3-|
|-----------3-3-----|
|-------------------|
|-------------------| 3x (On third time dont play -5-5-. Go staight to II.)

II.
|-5-5-5-5-5-5-5-5-|
|-----------------|
|-----------------|
|-----------------| 2x



VERSE II

|--------------------10-8-10-|  
|------------12-11-10--------|
|-12-12-10-12----------------|
|----------------------------| 5x

|----------------------------|
|--------------------10-8-10-|  
|------------12-11-10--------|
|-12-12-10-12----------------| 2x

|--------------------10-8-10-|  
|------------12-11-10--------|
|-12-12-10-12----------------|
|----------------------------| 2x


CHORUS

I.
|-5-5-----------3-3-|
|-----------3-3-----|
|-------------------|
|-------------------| 3x (On third time dont play -5-5-. Go staight to II.)
[ Tab from: http://www.guitartabs.cc/tabs/e/eric_clapton/sunshine_of_your_love_btab_ver_2.html ]
II.
|-5-5-5-5-5-5-5-5-|
|-----------------|
|-----------------|
|-----------------| 2x

SOLO

|--------------------10-8-10-|  
|------------12-11-10--------|
|-12-12-10-12----------------|
|----------------------------| 4x

|----------------------------|
|--------------------10-8-10-|  
|------------12-11-10--------|
|-12-12-10-12----------------| 2x

|--------------------10-8-10-|  
|------------12-11-10--------|
|-12-12-10-12----------------|
|----------------------------| 2x

I.
|-5-5-----------3-3-|
|-----------3-3-----|
|-------------------|
|-------------------| 3x (On third time dont play -5-5-. Go staight to II.)

II.
|-5-5-5-5-5-5-5-5-|
|-----------------|
|-----------------|
|-----------------| 2x

VERSE III

|--------------------10-8-10-|  
|------------12-11-10--------|
|-12-12-10-12----------------|
|----------------------------| 6x

|----------------------------|
|--------------------10-8-10-|  
|------------12-11-10--------|
|-12-12-10-12----------------| 2x

|--------------------10-8-10-|  
|------------12-11-10--------|
|-12-12-10-12----------------|
|----------------------------| 2x

OUTRO

I.
|-5-5-----------3-3-|
|-----------3-3-----|
|-------------------|
|-------------------| 4x (On fifth time dont play -5-5-. Go staight to II.)

II.
|-5-5-5-5-5-5-5-5-|
|-----------------|
|-----------------|
|-----------------| 4x


Question or Comments: BBMan715888@aol.com not yahoo.com
Comments