Eric Clapton - Running On Faith Chords & Tabs

 

Running On Faith Chords & Tabs

Eric Clapton Chords & Tabs

Version: 1 Type: Tab 0 ratings
1 star 2 stars 3 stars 4 stars 5 stars
comments

Running On Faith Tab

   
Running On Faith
Intro and Solo
By Eric Clapton (unplugged version)
by Brian S.

1st step : GET A SLIDE!!!
2nd step : listen to track 8 on the unplugged CD
3rd step : Try to play this!

key ~ - vibrato
   (8)- play before sliding up to next note
E.C. on slide guitar
Intro
E-----------------------------------/10--------------------|
b-(8)/12~~-\10~--\8~~----8--------------12-----------------|
g---------------------/9---9--7------------12~~-12~/9~~----|
d-------------------------------9~~------------------------|
a----------------------------------------------------------|
E----------------------------------------------------------|

E----------------------------------------------------------|
b------------------------------/8--------------------------|
g-9-9~--(9)/10~~-10-9-------/9----11-9-7~~~-7~/1--/12-0/12-|
d---------------------10-----------------------------------|
a------------------------10~-------------------------------|
E----------------------------------------------------------|
[ Tab from: http://www.guitartabs.cc/tabs/e/eric_clapton/running_on_faith_tab.html ]
E----------------------------------------------------------|
b----------------------------------------------------------|
g-0~/12~~-12~-\11-\10~~------------------------------------|
d----------------------------------------------------------|
a----------------------------------------------------------|
E----------------------------------------------------------|
 Verse
  G                 D        Em
E-x-----------------2--------0-------------------------------|
b-3-----------------3--------x-------------------------------|
g-0-----------------2--------0--------/9~~-------------------|
d-0-----------------0--------2-------------------------------|
a-2-----------------x--------2-------------------------------|
E-3-----------------x--------0-------------------------------|
( Lately Ive been runnin on faith....) (go to the chords in
                    the other tab. for the correct chords)

Solo :
E----------------------------------------------------12-10-|
b-/12~-12-12~--/15-15~-15/-\8~-------8-10-12~~-12-12-------|
g------------------------------/7-/9-----------------------|
d----------------------------------------------------------|
a----------------------------------------------------------|
E----------------------------------------------------------|

E-10~--/7-7-6-5~~---------------------------------------------|
b-----------------------/8------------------------10----------|
g-----------------/7~-/9---9--7--/5~~--9-9-9~--11----11-9-7~~-|
d-------------------------------------------------------------|
a-------------------------------------------------------------|
E-------------------------------------------------------------|

E----------------------------------------------------------|
b----------------------------------------------------------|
g--7/-0-/12~~~~--------------------------------------------|
d----------------------------------------------------------|
a----------------------------------------------------------|
E----------------------------------------------------------|
Comments