Eric Clapton - Runing On Faith Chords & Tabs

 

Runing On Faith Chords & Tabs

Eric Clapton Chords & Tabs

Version: 1 Type: Tab 0 ratings
1 star 2 stars 3 stars 4 stars 5 stars
comments

Runing On Faith Tab

   
#----------------------------------PLEASE NOTE---------------------------------#
#This file is the author's own work and represents their interpretation of the #
#song. You may only use this file for private study, scholarship, or research. #
#------------------------------------------------------------------------------#


Date: 19.01.2005
Tabbed by Peter Tuyp (peter.tuyp@wxs.nl)

Subject:
Eric Clapton - Runin' on faith (unplugged)

In this song Eric Clapton plays a dobro in open G tuning with slide
and Andy Fairweather Low plays a guitar in standard tuning.

The tab is about the dobro part and the chords are for guitar.
Of course, when you don't have a dobro, you can play it on a regular guitar.

When you are playing alone, you can improvise bits and pieces
of the chords in between the dobro part. Here are some chord for open G tuning.

G  = 000000
D  = 020230  or  777777 (with slide)
Em = x42002
G7 = 540003
D7 = x20210
C  = xx2010  or  xx2012  or  555555 (with slide)
F  = xx321x
B7 = x2120x
A  = 222222

Open G Tuning = D G D G B D  low to  high

The song is played with a slide.
~~~~ = slide
/ = slide up
\ = slide down

Intro:
  G            D        Em                         G          D        Em           G7
  ~~~~~    ~~~~~~~~     ~    ~~~  ~ ~~~  ~~~       ~~~~~  ~~~~~  ~~    ~ ~    ~ ~ ~~~
|--------------------------------------------------12\10---------------5---------------|
|-10/12----12\10-10-----8---------8-----------------------10/12----------5----5-5-5/6--|
|----------------------------7/9----9\7--7/9--0------------------12--------------------|
|--------------------------------------------------------------------------------------|
|--------------------------------------------------------------------------------------|
|--------------------------------------------------------------------------------------|

      C                  D7                G      C         D           C            G
  ~ ~~~  ~ ~    ~~~  ~ ~~~  ~ ~    ~~~     ~    ~~~  ~    ~~~  ~    ~ ~ ~    ~~~     ~
|--------------------5---------------------5-----------------------------------------5-|
|-6-3/5---------3/5----5/7-------------------------------------------------------------|
|--------5------------------7------4\2--0------------5---------7----7-6-5----4\2--0----|
|----------5------------------7-----------------3/5--5----5/7--7-----------------------|
|-----------------------------------------------3/5-------5/7--------------------------|
|--------------------------------------------------------------------------------------|

Verse 1:
  G                D                 Em                                         D    G
                                                                         ~~~    ~~
|--------------------------------------------------------------------------------------|
|------------------------------------------------------------------------3/5----3\0----|
|------------------------------------------------------------------------------------0-|
|--------------------------------------------------------------------------------------|
|--------------------------------------------------------------------------------------|
|--------------------------------------------------------------------------------------|
  Lately I've been runnin' on faith

  G               D            Em                                                    G7
                                                                             ~~~   ~~~
|--------------------------------------------------------------------------------------|
|--------------------------------------------------------------------------------------|
|----------------------------------------------------------------------------4\2-0-2/4-|
|--------------------------------------------------------------------------------------|
|--------------------------------------------------------------------------------------|
|--------------------------------------------------------------------------------------|
  What else can a poor boy do?

  G7     C                                                                           D
                                                                      ~~~  ~    ~~~  ~
|--------------------------------------------------------------------------------------|
|--------------------------------------------------------------------------------------|
|--------------------------------------------------------------------------5---------7-|
|---------------------------------------------------------------------3/5-------5/7----|
|--------------------------------------------------------------------------------------|
|--------------------------------------------------------------------------------------|
  But my world would be right

  D                    G                            C         D        C             G
                                               ~~~  ~    ~~~  ~    ~ ~ ~    ~~~     ~~
|-----------------------------------------------------------------------------------/5-|
|--------------------------------------------------------------------------------------|
|----------------------------------------------3/5--5----5/7--7----7-6-5----4\2--0-----|
|----------------------------------------------3/5--5----5/7--7------------------------|
|----------------------------------------------3/5--5----5/7--7------------------------|
|--------------------------------------------------------------------------------------|
  when love comes over me

Verse 2:
  G                D                    Em                                        D  G
                                                           ~~~    ~ ~~~    ~~~~~
|-----------------------------------------------------------------5--------------------|
|----------------------------------------------------------3/5------3/5----------------|
|--------------------------------------------------------------------------2/4\2--0--0-|
|--------------------------------------------------------------------------------------|
|--------------------------------------------------------------------------------------|
|--------------------------------------------------------------------------------------|
  Lately I've been talking in my sleep

  G               D                    Em                                            G7
                                                                             ~~~   ~~~
|--------------------------------------------------------------------------------------|
|--------------------------------------------------------------------------------------|
|----------------------------------------------------------------------------4\2-0-2/4-|
|--------------------------------------------------------------------------------------|
|--------------------------------------------------------------------------------------|
|--------------------------------------------------------------------------------------|
  I can't imagine what I'd have to say

  G7        C                                                                        D
                                                                    ~~~  ~ ~ ~  ~~~  ~
|--------------------------------------------------------------------------------------|
|--------------------------------------------------------------------------------------|
|------------------------------------------------------------------------5---5-------7-|
|-------------------------------------------------------------------3/5----5----5/7----|
|--------------------------------------------------------------------------------------|
|--------------------------------------------------------------------------------------|
  Except my world wouldn't be right

  D                         G                     C          G          G7           C
                                             ~~~  ~    ~~~   ~    ~  ~  ~    ~  ~~~  ~
|------------------------------------------------------------5----5--4--3----3---------|
|--------------------------------------------------------------------------------------|
|--------------------------------------------3/5--5----4\2-0--------------------3/5--5-|
|--------------------------------------------3/5--5-----------------------------3/5--5-|
|--------------------------------------------3/5--5-----------------------------3/5--5-|
|--------------------------------------------------------------------------------------|
  When love comes back your way

Chorus:
  C           B7                                                                     Em
                                                                   ~~~  ~  ~    ~  ~~~
|--------------------------------------------------------------------------------------|
|----------------------------------------------------------------------------------4/5-|
|------------------------------------------------------------------3/4-----4----4------|
|-----------------------------------------------------------------------4--------------|
|--------------------------------------------------------------------------------------|
|--------------------------------------------------------------------------------------|
  I've always been

  Em     G7                  C                                                  C/b  A
                                                                      ~~~  ~    ~    ~
|--------------------------------------------------------------------------------------|
|--------------------------------------------------------------------------5-----------|
|---------------------------------------------------------------------3/5--5----4----2-|
|---------------------------------------------------------------------3/5--5-----------|
|---------------------------------------------------------------------3/5--------------|
|--------------------------------------------------------------------------------------|
  One to take each and every day

  A                                     C
|--------------------------------------------------------------------------------------|
|--------------------------------------------------------------------------------------|
|--------------------------------------------------------------------------------------|
|--------------------------------------------------------------------------------------|
|--------------------------------------------------------------------------------------|
|--------------------------------------------------------------------------------------|
  Seems like by now   I find a love who cares,

  C              D                                                                D7 G
                                                                    ~ ~ ~    ~~~     ~
|------------------------------------------------------------------------------------5-|
|--------------------------------------------------------------------------------------|
|-------------------------------------------------------------------7-6-5----4\2--0----|
|--------------------------------------------------------------------------------------|
|--------------------------------------------------------------------------------------|
|--------------------------------------------------------------------------------------|
  cares just for me

Verse 3:
  G         D            Em                                                       D  G
                                                               ~~~    ~~~    ~~~
|--------------------------------------------------------------------------------------|
|--------------------------------------------------------------3/5----3/5--------------|
|----------------------------------------------------------------------------4\2--0--0-|
|--------------------------------------------------------------------------------------|
|--------------------------------------------------------------------------------------|
|--------------------------------------------------------------------------------------|
  Then we'd go runnin'on faith

  G          D                 Em                                                    G7
                                                                                   ~~~
|----------------------------------------------------------------------------------3/5-|
|--------------------------------------------------------------------------------------|
|--------------------------------------------------------------------------------------|
|--------------------------------------------------------------------------------------|
|--------------------------------------------------------------------------------------|
|--------------------------------------------------------------------------------------|
  All of our dreams would come true

  G7      C                                                                          D
                                                                     ~~~  ~ ~ ~  ~~~~~
|--------------------------------------------------------------------------------------|
|--------------------------------------------------------------------------------------|
|-------------------------------------------------------------------------5---5------7-|
|--------------------------------------------------------------------3/5----5----3/5/7-|
|--------------------------------------------------------------------------------------|
|--------------------------------------------------------------------------------------|
  And our world would be right

  D                      G                                       C         D         D7
                                                            ~~~  ~    ~~~  ~~~~~ ~ ~ ~
|--------------------------------------------------------------------------------------|
|--------------------------------------------------------------------------------------|
|----------------------------------------------------------------5---------7/6\7-7-6-5-|
|-----------------------------------------------------------3/5--5----5/7--7/6\7-------|
|-----------------------------------------------------------3/5-------5/7--------------|
|--------------------------------------------------------------------------------------|
  Love comse over me and you

Solo 1:
  G                D           Em                 G          D           Em         G7
  ~~~~~   ~~ ~~ ~~~~~  ~~   ~~~~  ~   ~ ~ ~  ~  ~~~   ~ ~ ~~~~~  ~~   ~~ ~~   ~~ ~~ ~~
|---------------10/12--12---12\8----------5--7--7/9---9-9-12/14--12---12---------------|
|-10/12---12-12-------------------8---3-5--------------------------------12---12-11-10-|
|--------------------------------------------------------------------------------------|
|--------------------------------------------------------------------------------------|
|--------------------------------------------------------------------------------------|
|--------------------------------------------------------------------------------------|
[ Tab from: http://www.guitartabs.cc/tabs/e/eric_clapton/runing_on_faith_tab.html ]
       C                   D7                            G              C       G
  ~~~  ~ ~ ~~~  ~    ~ ~ ~ ~ ~ ~~~  ~    ~~~~~ ~ ~~         ~~    ~ ~ ~~~  ~~~
|--------5-------------------7------------------------------/5----3-3------------------|
|-3/5--5---5\4-------5-5-6-7---7\5--3---------------------------------3\1--------------|
|---------------5------------------------2/4\2-0-/2-0----0-----------------1/3--0------|
|----------------------------------------2/4\2---/2---0--------------------------------|
|--------------------------------------------------------------------------------------|
|--------------------------------------------------------------------------------------|

  G                                  G7  C
    ~   ~~~  ~   ~~~    ~     ~~  ~     ~~
|-----------------------------/5--5--0-------------------------------------------------|
|-----------------------------/5--5--0--/5---------------------------------------------|
|---------------------------------------/5---------------------------------------------|
|-----0-4/5--3-0-1/3-0-----------------------------------------------------------------|
|-0-4-------------------3--0-----------------------------------------------------------|
|--------------------------------------------------------------------------------------|

Chorus:
  C               B7                                                                 Em
                                                                   ~~~  ~  ~    ~  ~~~
|--------------------------------------------------------------------------------------|
|-------------------------------------------------------------------------------3--3/5-|
|------------------------------------------------------------------2/4--4--4-----------|
|--------------------------------------------------------------------------------------|
|--------------------------------------------------------------------------------------|
|--------------------------------------------------------------------------------------|
  All I've always been

  Em     G7                  C                                             C    C/b  A
                                                                      ~~~  ~    ~    ~
|--------------------------------------------------------------------------------------|
|--------------------------------------------------------------------------------------|
|---------------------------------------------------------------------3/5--5----4----2-|
|---------------------------------------------------------------------3/5------------2-|
|--------------------------------------------------------------------------------------|
|--------------------------------------------------------------------------------------|
  One to take each and every day

  A                                     C
|--------------------------------------------------------------------------------------|
|--------------------------------------------------------------------------------------|
|--------------------------------------------------------------------------------------|
|--------------------------------------------------------------------------------------|
|--------------------------------------------------------------------------------------|
|--------------------------------------------------------------------------------------|
  Seems like by now   I find a love who cares,

  C              D                                                                D7 G
                                                                    ~~~       ~~~    ~
|-----------------------------------------------------------------------0------------5-|
|--------------------------------------------------------------------------------------|
|-------------------------------------------------------------------2/4-------4\2-0----|
|--------------------------------------------------------------------------0-----------|
|--------------------------------------------------------------------------------------|
|--------------------------------------------------------------------------------------|
  Care just for me

Verse 4:
  G       D              Em                                                      D   G
                                                                    ~~~ ~    ~~~    ~~
|-----------------------------------------------------------------------------------/5-|
|-------------------------------------------------------------------3/5-5--------------|
|----------------------------------------------------------------------------4\2-0-----|
|--------------------------------------------------------------------------------------|
|--------------------------------------------------------------------------------------|
|--------------------------------------------------------------------------------------|
  Then we'd go runnin'on faith

  G          D                 Em                                                    G7
                                                            ~~  ~~~~~ ~~~~~ ~~~~ ~~~ ~
|-----------------------------------------------------------12--12\10------------------|
|---------------------------------------------------------------------10/12------------|
|---------------------------------------------------------------------------12\3-----5-|
|--------------------------------------------------------------------------------3/5---|
|--------------------------------------------------------------------------------------|
|--------------------------------------------------------------------------------------|
  All of our dreams would come true

  G7     C                                                                           D
                                                                                 ~~~ ~
|--------------------------------------------------------------------------------------|
|--------------------------------------------------------------------------------------|
|------------------------------------------------------------------------------------7-|
|--------------------------------------------------------------------------------5/7---|
|--------------------------------------------------------------------------------------|
|--------------------------------------------------------------------------------------|
  And our world will be right

  D                                   F                           C                Fmaj7
                                ~~~~
|-----------------------------------------------------------------2--2-2-2--2-2-2----2-|
|-------------------------------------1--1-1-1--1-1-1--1-1-1--1-1-1--1-1-1--1-1-1----1-|
|-------------------------------12\3--2--2-2-2--2-2-2--2-2-2--2-2-0--0-0-0--0-0-0----2-|
|-------------------------------12\3--3--3-3-3--3-3-3--3-3-3--3-3-2--2-2-2--2-2-2----3-|
|--------------------------------------------------------------------------------------|
|--------------------------------------------------------------------------------------|
  Love comes over me         and you              yes it would

  G          F    C                                                                  G
                                                                       ~ ~~~ ~~~   ~
|----------------------------------------------------------------------3---------------|
|------------------------------------------------------------------------3\1-----------|
|----------------------------------------------------------------------------1/3-0---0-|
|----------------------------------------------------------------------------------3---|
|--------------------------------------------------------------------------------------|
|--------------------------------------------------------------------------------------|
  Love comes over you

  G          F          C                                                            G
                                                                 ~~    ~   ~     ~~~
|----------------------------------------------------------------/5----3-0-3-0---------|
|------------------------------------------------------------------------------0-2/3-0-|
|------------------------------------------------------------------------------------0-|
|--------------------------------------------------------------------------------------|
|--------------------------------------------------------------------------------------|
|--------------------------------------------------------------------------------------|
     Love comes o-over you

  G         F                   C
        Love love comes over you

  G                F               C
        All of the dreams will come true       I said real

  G        F                  C
  love        real love comes over you

  G             F                 C
      All of the dreams will come true

  G              F                   C
     real love        real love comes over you

  G              F         C
      And all of the dreams will come true

Solo 2:
     G                    F              C
  ~~~~~ ~~ ~~  ~~    ~~~~ ~~ ~~  ~~    ~~~ ~ ~ ~ ~ ~~      ~   ~~~ ~
|--------------------------------------------------------------------------------------|
|-10/12-12-12--12----8/10-10-10--10----3/5-5-5-5-5-------------------------------------|
|-10/12-12-12--12----8/10-10-10--10----3/5-5-5-5-5-/3----0---0-------------------------|
|-10/12-12-12--12----8/10-10-10--10----3/5-5-5-5-5---------3---3/5-5-------------------|
|--------------------------------------------------------------------------------------|
|--------------------------------------------------------------------------------------|

  G                    F                  C                              G
  ~~ ~~ ~~ ~~~~~ ~~~~~ ~~  ~~ ~~ ~~  ~~~~ ~ ~ ~ ~~~~  ~~   ~~  ~   ~   ~
|-12-12-12-12\10-----------------------------------------------------------------------|
|-12-12-12-12\10-10/12-----10-12-12-------5-5-5-5\3\0-/3-0-/5--3-0-3-0---0-------------|
|----------------------12--10-12-12--12\5-5-5-5-5\3\0-/3-0-/5--3-0-3-0-3-0-------------|
|------------------------------------12\5------------------------------3---------------|
|--------------------------------------------------------------------------------------|
|--------------------------------------------------------------------------------------|

   G     F               C
  ~~    ~~  ~~~  ~~~  ~~ ~~  ~~~~~ ~~~~~ ~~ ~~~~~ ~~~~~ ~~  ~~ ~~ ~~ ~~
|-/5----/8--/10--/12---------12\10----------12\10--------------------------------------|
|---------------------11-----------10/12----------10/12--------------------------------|
|------------------------12--------------12-------------12--10-12-10-12----------------|
|--------------------------------------------------------------------------------------|
|--------------------------------------------------------------------------------------|
|--------------------------------------------------------------------------------------|

     G             F                  C
  ~~~~~    ~~~~  ~~~    ~ ~ ~ ~ ~ ~ ~~~  ~~~   ~~~   ~~~    ~~~   ~~~
|--------------------------------------------------------------------------------------|
|-----------------------5-----5--------------------------------------------------------|
|-10/12----12\5-----------5-----5--------5\3-0-5\3-0-1/3--0-----0-----0----------------|
|-10/12----12\5--3/5--------5-----5-3/5---------------------2/3---2/3---0--------------|
|--------------------------------------------------------------------------------------|
|--------------------------------------------------------------------------------------|

     G                 F                     C
  ~~~~~ ~~ ~~ ~~ ~~~~  ~ ~~~~  ~~ ~~  ~~  ~~~~~ ~~~~~ ~~ ~~ ~~ ~~ ~~~~~ ~~~~~ ~~ ~~ ~~
|-----------------------------------------12\10----------12-------12\10----------------|
|-----------------------------------------------10/12-------12----------10/12----------|
|-10/12-12-12-12-12\7--7-7/10--10-10--10--------------12-------12-------------12-10-12-|
|-10/12-12-12-12-12\7--7-7/10--10-10--10-----------------------------------------------|
|--------------------------------------------------------------------------------------|
|--------------------------------------------------------------------------------------|

    G             F         C
  ~~~  ~~~  ~~~  ~ ~   ~    ~    ~~      ~ ~~    ~   ~
|---------------------------5----3\0-0-0-----------------------------------------------|
|--------------------------------------------------------------------------------------|
|------3/5--3/5--3-2-0---0---------------5-/3--0---0-3-0-------------------------------|
|-3/5--3/5--3/5--------3-------------------------3-------------------------------------|
|-3/5----------------------------------------------------------------------------------|
|--------------------------------------------------------------------------------------|

Ending:
  G          F    C
                                                                     ~ ~   ~   ~   ~
|--------------------------------------------------------------------------------------|
|--------------------------------------------------------------------------------------|
|--------------------------------------------------------------------3-2-0---0-3-0---0-|
|--------------------------------------------------------------------------3-------3---|
|--------------------------------------------------------------------------------------|
|--------------------------------------------------------------------------------------|
  Love comes over you

  G          F       C
|--------------------------------------------------------------------------------------|
|--------------------------------------------------------------------------------------|
|--------------------------------------------------------------------------------------|
|--------------------------------------------------------------------------------------|
|--------------------------------------------------------------------------------------|
|--------------------------------------------------------------------------------------|
  Love comes o  over you

  G          F       C
|--------------------------------------------------------------------------------------|
|--------------------------------------------------------------------------------------|
|--------------------------------------------------------------------------------------|
|--------------------3/5---------------------------------------------------------------|
|--------------------------------------------------------------------------------------|
|--------------------------------------------------------------------------------------|
  Love comes over    you

Outro:
  ~~    ~ ~ ~  ~ ~ ~~    ~~~ ~        ~~~    ~   ~~~~~   ~~~
|-/5----3---3--------------------------------------------------------------------------|
|---------3----3-1-----------5---------------------------------------------------------|
|------------------/3--0-----5--------2/3--0---0---------------------------------------|
|------------------------2/5-----------------3---3/5\3-0-------------------------------|
|--------------------------------------------------------3/5---------------------------|
|--------------------------------------------------------------------------------------|
Comments