Eric Clapton - Reconsider Baby Chords & Tabs

 

Reconsider Baby Chords & Tabs

Eric Clapton Chords & Tabs

Version: 1 Type: Tab 0 ratings
1 star 2 stars 3 stars 4 stars 5 stars
comments

Reconsider Baby Tab

-------------------------------------------------------------------------------
			     Reconsider Baby - Eric Clapton
-------------------------------------------------------------------------------
Tabbed by:Oleg.O
Email:supersnow80@hotmail.com

Tuning:Standard(EADGBe)




E----------3------3--6--3-----------------------------------------------|
B-------3-----6^-----------3--------------------------------------------|
G---5^------------------------5^--5p3-----3h5p3-------------------------|
D--------------------------------------5---------5----------------------|
A---------------------------------------------------3--x----------------|
E------------------------------------------------------3--(3)-----------|

E-----------------------------------------------------------------------|
B-----------------------------------------------5h6--3-----3------------|
G-----------/5--3~~~------------------------------------5-----5^p3------|
D---/5--3~~~-----------------------/5--3~~~-----------------------------|
A-----------------------------------------------------------------------|
E-----------------------------------------------------------------------|

E----------------------3-----6--3---------------------------------------|
B-------------------3-----3---------------------------------------------|
G------5-----3--5^--------------------------3--5--5^5p3-----------------|
D---5-----5------------------------------5-----------------5------------|
A-----------------------------------------------------------------------|
E-----------------------------------------------------------------------|
[ Tab from: http://www.guitartabs.cc/tabs/e/eric_clapton/reconsider_baby_tab.html ]
E------------------------5^--3------------------------------------------|
B------3-----------------4------------3---------------------------------|
G--5^-----5^5p3--------------------------3h5--3-----3h5-----------------|
D------------------------------------------------5-------5--------------|
A-----------------------------------------------------------5-----------|
E-----------------------------------------------------------------------|

E-----------------------------------------------------------------------|
B----------------------------------------3------------------------------|
G------------------------------3--5--5^-----5^5p3-------5-----3---------|
D---------------------------5------------------------5-----5------------|
A-----------------------------------------------------------------------|
E-----------------------------------------------------------------------|

E---------3--------------3--6^--6^--3-----------------------------------|
B------3-----------3--6----------------3--------------------------------|
G--5^-------------------------------------5--3--------------------------|
D-----------------------------------------------5-----------------------|
A--------------------------------------------------5--------------------|
E-----------------------------------------------------------------------|

E------------------------7^--6^--3--------------------------3-----------|
B---------------------------------/3---------------------3-----6--------|
G-------------------------------------5-------------3/5-----------------|
D----------------------------------------5p0----------------------------|
A-----------------------------------------------------------------------|
E-----------------------------------------------------------------------|

E-----------------------------------------------------------------------|
B---6--3-----3----------------------------------------------------------|
G---------5-----5^--3-----3^--------------------------------------------|
D-----------------------------------------------------------------------|
A-----------------------------5-----------------------------------------|
E-----------------------------------------------------------------------|
Comments