Eric Clapton - Nobody Knows You When Youre Down And Out Chords & Tabs

 

Nobody Knows You When Youre Down And Out Chords & Tabs

Eric Clapton Chords & Tabs

Version: 2 Type: Tab 0 ratings
1 star 2 stars 3 stars 4 stars 5 stars
comments

Nobody Knows You When Youre Down And Out Tab

   
#----------------------------------PLEASE NOTE---------------------------------#
#This file is the author's own work and represents their interpretation of the #
#song. You may only use this file for private study, scholarship, or research. #
#------------------------------------------------------------------------------#

Date: 25.02.2004
Tabbed by Peter Tuyp (peter.tuyp@wxs.nl)

Eric Clapton - Nobody knows you when you're down and out (unplugged)


Chords:
C	x32010
E7	020100
A7	x02020
A7(2)	x02023
Dm	x00231
Dm-	x00230
F	133211
B#0	x24242

Intro:
e|---0-0-----------0---0-----3-3-----3---1-1---------0-3-1-----0-1---------|
B|---1-1-------------3-2-----2-2-----2---3-3---------2-2-3-----3-3---------|
G|---0-0-0h1p0h1p0-----0-----0-0-----0---2-2---------0---------------------|
D|---------------------------------2---0-----0-0-1-2-------0-0-------------|
A|-3---------------------0-0-----0-----------------------------------------|
E|-------------------------------------------------------------------------|

e|----------1---1---2---2------------3-3-----2---2---2-2-----1---1-1-1-1-1-|
B|----------1---1---4---4------------2-2-----1---1---1-1-----0---0-0-0-0-0-|
G|----------2---2---2---2------------2-2-----2---2---2-2-----0---0-0-0-0-0-|
D|-0-1-2-3----3---4---4---4----------2-2-2-0---0---0-0---0-----------------|
A|---------------------------3-2-1-0---------------------------------------|
E|---------------------------------------------------------2-3-3-----3---3-|


Verse 1:
C      E7                   A7   A7(2)
Once I lived the life of a millionaire
Dm           A7            Dm   Dm-
Spent all my money, didn't have any care
   F              B#0        C       A7
e|----------1---1---2---2------------3-3---|
B|----------1---1---4---4------------2-2---|
G|----------2---2---2---2------------2-2---|
D|-0-1-2-3----3---4---4---4----------2-2-2-|
A|---------------------------3-2-1-0-------|
E|-----------------------------------------|
            Took all my friends out for a mighty good time
D7                     G7
Bought bootleg liquor, champagne and wine


Same chords and tabs for other verses and chorus


Verse 2:
Then I began to fall so low
Lost all my good friens, had nowhere to go
If I get my hand on a dollar again
I'll hang on to it, till that old eagle grins

[ Tab from: http://www.guitartabs.cc/tabs/e/eric_clapton/nobody_knows_you_when_youre_down_and_out_tab_ver_2.html ]
Chorus:
Cos, noboy knows you
When you're down and out
In your pocket not one penny,
Snd as for friends, you don't have any


Verse 4:
When you get back on your feet again
Everybody wants to be your long lost friend
I said it straight without any doubt
nobody knows you when your down and out


Solo:
e|-------------------------------------------------------------------------|
B|-----------5/8-9-10-8-10-8h10-8------------------------------------------|
G|-------4-5----------------------9-7-6---2/6------------------------------|
D|---2-5--------------------------------7-----7----------------------------|
A|-3-----------------------------------------------------------------------|
E|-------------------------------------------------------------------------|

e|-------------------------------------------------------------------------|
B|-5/6p5-6-5---------------------------------------------------------------|
G|-----------7p5-7-------------------------5-7-5-7-7/8-5-7-5---5-8p7p5-----|
D|------------------3/5-3-5-3-0--------5/7-------------------7---------7---|
A|------------------------------3-4-5--------------------------------------|
E|-------------------------------------------------------------------------|

e|-----------------5p3-----------------------------------------------------|
B|--6/8-8-8-7-6-5--2-------7---7--8/9-10----9-11/12-13/14-15/17-15---------|
G|--7/9-9-9-8-7-6----------------------------------------------------------|
D|---------------------5/7---7--7-8/9-10-10---11/12-13/14------------------|
A|-------------------------------------------------------------------------|
E|-------------------------------------------------------------------------|


Chorus:
Oh nobody knows you
When you're down and out
In your pocket not one penny,
Snd as for friends, you don't have any


Verse 4:
When you get back on your feet again
Everybody wants to be your long lost friend
I said it straight without any doubt
D7
nobody knows you
G7
nobody knows you
D7     G7
nobody knows you when your down and out


outro:
e|------------------------------2-0----------------------------------------|
B|-7b8-6------------------------4-3----------------------------------------|
G|-------8----------------------2-0----------------------------------------|
D|---------10-8-----------------4-2----------------------------------------|
A|--------------10-9-8-6h7h8p6--2-3----------------------------------------|
E|-------------------------------------------------------------------------|
Comments