Eric Clapton - No Alibis Chords & Tabs

 

No Alibis Chords & Tabs

Eric Clapton Chords & Tabs

Version: 1 Type: Tab 0 ratings
1 star 2 stars 3 stars 4 stars 5 stars
comments

No Alibis Tab

   
Artist: Eric Clapton
Song: No Alibis
Key: D

Intro:
-------------------------------------------------------------------------------
-(7)---17b19-17b19-17b19r17-15---18b20-17b19-15h17p15---15-15-17b19---17b19r17-
-(7)--------------------------------------------------16-----------------------
-(7)---------------------------------------------------------------------------
-------------------------------------------------------------------------------
-------------------------------------------------------------------------------

------------17-----------------------------------------------------------------
-15-15-17b19--17b19---18b20-17b19r17p15----------------------------------------
---------------------------------------16b18r16p14-14--------------------------
-------------------------------------------------------------------------------
-------------------------------------------------------------------------------
-------------------------------------------------------------------------------

1st Chorus:

alibis...          alibis...                     lie...
------------------|-17b19-17--------------------|------17----------------------
-17b19r17-17b19---|---------17b19r17-15-17b19---|-17b19--17b19r17-15--------15-
------------------|-----------------------------|----------------------14h16---
------------------|-----------------------------|------------------------------
------------------|-----------------------------|------------------------------
------------------|-----------------------------|------------------------------

--------------------------
-15h17-15-15--------------
------------16b18r16-14---
--------------------------
--------------------------
--------------------------

2nd Chorus:

alibis...          justify...             alibis...
------------------|----------------------|-------------------------------------
-17b19r17-17b19---|----------------------|-17b19r17-17b19-17p15--15-15-17p19---
------------------|-14h16-14-------------|---------------------16--------------
------------------|---------16p14--------|-------------------------------------
------------------|--------------14-17---|-------------------------------------
------------------|----------------------|-------------------------------------

Solo:

---------------------17b19-17------------------------------------19b21r19-17-
-17b19-17b19r17-15------------17p15-17b19r17-15-15-17------------------------
-----------------------------------------------------16b18r16-14-------------
-----------------------------------------------------------------------------
-----------------------------------------------------------------------------
-----------------------------------------------------------------------------

-15-17------------15h17------------------------------------17b19-20b22-20p17-
------17b19-15---------17b19-15-17-----------19-20b22-20b22------------------
--------------16\-----------------16b18-14-----------------------------------
-----------------------------------------------------------------------------
-----------------------------------------------------------------------------
-----------------------------------------------------------------------------

---------20b22-20p17---------------------------------------------------------
-20-19--------------20-19--19h20-20b22-20b22-20b22-20b22-19------------------
-------------------------19--------------------------------19----------------
-----------------------------------------------------------------------------
-----------------------------------------------------------------------------
-----------------------------------------------------------------------------

3rd Chorus:
[ Tab from: http://www.guitartabs.cc/tabs/e/eric_clapton/no_alibis_tab.html ]
no alibis...                       justify...                  alibis...
----------------------------------|---------------------------|-17b19-17---
-17b19r17-17b19-17b1917p15-15-----|-17b19r17-15-17-15-17b19---|------------
-----------------------------16---|---------------------------|------------
----------------------------------|---------------------------|------------
----------------------------------|---------------------------|------------
----------------------------------|---------------------------|------------

                      lie...
---------------------|------17-----17-19--------------------------------------
-17b19r17-15-15------|-17/19--17/19-----17-15-17b19-17b19-17p15-17-15-17--15--
---------------16\---|--------------------------------------------------16----
---------------------|--------------------------------------------------------
---------------------|--------------------------------------------------------
---------------------|--------------------------------------------------------

4th Chorus:

alibis...                      justify...                        alibis...
----------------------------|-------------------------------|-17b19r17------
-17b19r17-17b19r17-15-17b19-|-17b19r17-15-15-17-15-15-17b19-|---------17b19-
----------------------------|-------------------------------|---------------
----------------------------|-------------------------------|---------------
----------------------------|-------------------------------|---------------
----------------------------|-------------------------------|---------------

                         lie...
-----------------|--------14-15-15b17-15b17-17b19-17b19------------------------
-17p15--15h17-15-|---15-17-----------------------------17b19r17p15-15-15-17b19-
------16---------|-16----------------------------------------------------------
-----------------|-------------------------------------------------------------
-----------------|-------------------------------------------------------------
-----------------|-------------------------------------------------------------

5th Chorus:

justify...
-17h19-17h19-17h19-20b22-20-17--------------17------
------------------------------20-19-20-17b19--17b19-
----------------------------------------------------
----------------------------------------------------
----------------------------------------------------
----------------------------------------------------

Final Solo:

--------------------------------------------------------17---------------------
-17b19-17b19-17b19r17-15-17b19-15------------15-15-17b19--17b19-17b19r17p15-15-
------------------------------------14h16p14*----------------------------------
-------------------------------------------------------------------------------
-------------------------------------------------------------------------------
-------------------------------------------------------------------------------

-------------------------------------14-14-15-15b17-15b17-15-14--------14-15-
-17b19-----------17b19-17-15-17-15-15--------------------------17-15-17------
---------14-14-14------------------------------------------------------------
-----------------------------------------------------------------------------
-----------------------------------------------------------------------------
-----------------------------------------------------------------------------

-17-17b19-17-17b19-17-----------------------------------------------14h15b17-
---------------------17b19-15-17b19r17p15-15-17p19-18b20-18b20r18-15---------
-----------------------------------------------------------------------------
-----------------------------------------------------------------------------
-----------------------------------------------------------------------------
-----------------------------------------------------------------------------

*= play several times before going to next part

Legend:
h= hammer-on
p= pull-off
b= bend
r= release bend
/= slide up
\= slide down
()= harmonics

Hope it's of some use.

-KEW
Comments