Eric Clapton - I Shot The Sheriff Chords & Tabs

 

I Shot The Sheriff Chords & Tabs

Eric Clapton Chords & Tabs

Version: 2 Type: Tab 0 ratings
1 star 2 stars 3 stars 4 stars 5 stars
comments

I Shot The Sheriff Tab

                 I SHOT THE SHERIFF          Tabber:iCloud
              word and music by Bob Marley
Tunning(EBGDAE)

e--------------/----------------------/-------------/
B-3--1----1---3/------------------1---/-3-----------/
G-------3------/------0--0--3--3-----3/----0--0-----/
D--------------/----------------------/-------------/
A--------------/----------------------/-------------/
E--------------/------------------------------------

e----3--3-----3-----3--3/--------------/--------------------/
B----3--3-----3-----3--3/-3---1---1---3/----------------1---/
G----3--3-----3-----3--3/-------3------/----0--0--3--3-----3/
D-----------------------/--------------/--------------------/
A-----------------------/--------------/--------------------/
E-----------------------/--------------/--------------------

e------------------/----3--3-----3-----3--3/---3--3--1-------1/
B-----3------------/----3--3-----3-----3--3/--------------3---/
G--------0--0------/----3--3-----3-----3--3/------------------/
D------------------/-----------------------/------------------/
A------------------/-----------------------/------------------/
E------------------/-----------------------/------------------/
[ Tab from: http://www.guitartabs.cc/tabs/e/eric_clapton/i_shot_the_sheriff_tab_ver_2.html ]
e---3----/-----3--3-----3--1--1---/--------------/
B------3-/-----------------------3/--------------/
G--------/--0---------------------/-------------3/
D--------/------------------------/--------------/
A--------/------------------------/--------------/
E--------/------------------------/--------------/

e---3--3--3--3--1----1--3/--------------/--------1--------------/
B------------------3-----/----3---------/-3---4-----4--3----3--1/
G------------------------/-----------0-0/-----------------------/
D------------------------/--------------/-----------------------/
A------------------------/--------------/-----------------------/
E------------------------/--------------/-----------------------/

e-----------------1/-3--------------/---------3--3-1/
B---1-----------4--/-----3--1--1---3/-1-------------/
G-----3------------/----------------/---3----0------/
D------------------/----------------/---------------/
A------------------/----------------/---------------/
E------------------/----------------/---------------/

e-------------------/
B-------------------/
G-0-----------------/
D----3----0--------0/
A-------------3--1--/
E-------------------/

e------------/-----1--------------/
B------------/---3---3-----------1/
G------------/--------------------/
D------------/--------------------/
A----3---1---/--------------------/
E-----------3/--------------------/

e-------/-----------------/----3--3-----3-----3--3/
B-------/------6---------6/----3--3-----3-----3--3/
G--3--0-/------7---------5/----3--3-----3-----3--3/
D-------/----8-8------7--7/-----------------------/
A-------/-6----6---5-----5/-----------------------/
E-------/-----------------/-----------------------/
Comments