Eric Clapton - Hoochie Coochie Man Chords & Tabs

 

Hoochie Coochie Man Chords & Tabs

Eric Clapton Chords & Tabs

Version: 1 Type: Tab 0 ratings
1 star 2 stars 3 stars 4 stars 5 stars
comments

Hoochie Coochie Man Tab

   
Artist - Eric Clapton
Song - Hoochie Coochie Man
Album - From The Cradle
                         
E|------------------------|
B|------------------------|
G|------------------------| (x7)
D|-------5---5---7---7----|
A|--/7---5-h-7------------|
E|---8-----------8---5----|
                                         

E|---------------------------------------------|
B|-----8-8-----8--8----------------------------|
G|-----6-6-6-6-6--6----------------------------|
D|-----5-5-5-5-5--5----------------------------|
A|-----7-7-7-7-7--7----------------------------|
E|--5----------5--5--5-------------------------|


E|-------------------------------5--|-----------------------------------|
B|-7---7--5-----7--5-----5--5----5--|-----5-----7--5-/7--7--7-----------|
G|-7---7--5-----7--5-----5--7-------|-----5-----7--5-/7--7--7-p5--------|
D|-----------7--------7-------------|--7-----7--------------------7-----|
A|----------------------------------|-----------------------------------|
E|----------------------------------|-----------------------------------|


E|------------------8--7--5-h7--5----------|----------------5--7--5h7-5-|
B|------------5--7-----------------8--5----|-----------5--7-------------|
G|--------5h6---------------------------7--|-5h6--5h6-------------------|
D|-----5-----------------------------------|----------------------------|
A|-----------------------------------------|----------------------------|
E|--5--------------------------------------|----------------------------|

                             
E|----7-----7-----7------------|--5--8-----8--7--5---8-\7--7------------|
B|----------------------5--6-7-|--------7------------------7------------|
G|-7-----7-----7-----7---------|--------------7--5---8-\7--7------------|
D|-----------------------------|----------------------------------------|
A|-----------------------------|----------------------------------------|
E|-----------------------------|----------------------------------------|

                                                
E|----6---0--2--3--2\1----------|---------------------------------------|
B|----------------------2--3--4-|--4\5----------------------------------|
G|--5h6-------------------------|---------------------------------------|
D|----------------------2--3--4-|--4\5----------------------5--5--7-----|
A|------------------------------|-------3\4--5--6--7----/7--------------|
E|------------------------------|---------------------0-----------------|
[ Tab from: http://www.guitartabs.cc/tabs/e/eric_clapton/hoochie_coochie_man_tab.html ]
   
E|-----0-----0--0--0--0-----0--0--0-|-----------------------------------|
B|-----5-----5--5--5--5-----5--5--5-|-----4-----4-----4-----------------|
G|-/6-----6--6--6--6--6--6--6--6--6-|--5-----5-----5--------4/5-----4---|
D|----------------------------------|--------------------7-------7--5---|
A|----------------------------------|-----------------------------------|
E|----------------------------------|-----------------------------------|

   
E|-------0-----0--0--0--0--0---0--6/9-|--8/9-----9--7-------5-----------|
B|--4/5--5-----5--5--5--5--5---5--5/8-|--7/8-----8--6p0-----5-----------|
G|--5/6-----6--6--6--6--6--6---6--6/9-|--8/9--9-----7---8\5h6--5h6-5----|
D|------------------------------------|------------------------------7-7|
A|------------------------------------|---------------------------------|
E|------------------------------------|---------------------------------|

   
E|--------------0-----------------|------0--------0-------0-----10------|
B|-----5-----3-----3-----------3--|-3/5-----5--3----------10----10----10|
G|-----5-----4-----4--1-----1--4--|-4/6-----5--4-----5/11----11----11---|
D|--0-----0-----------2-----2-----|---0---------------------------------|
A|-----------------------0--0-----|-------------------------------------|
E|--------------------------------|-------------------------------------|

   
E|----------0--0--0----0--0--0--0--0---0-|-----0-0-0-0-0-0-0-0-0--------|
B|----------5-----5p0-----5--5--5--5---0-|-----5-5-5-5-5-5-5-5-5--------|
G|-----4/6-------------------------------|-4/6--------------------------|
D|---------------------------------------|------------------------------|
A|--0------------------------------------|------------------------5-6-7-|
E|---------------------------------------|------------------------------|

                              
E|------------0-----0--0---0--|-----------------------------------------|
B|-----3---------0--3--3---0--|--7---7--7------5---5--7-----------------|
G|-------0h1------------------|--7---7--7------5---5--7-----------------|
D|----------------------------|--5---5--5---5---------5-----------------|
A|----------------------------|---------------------------0-------------|
E|--0-------------------------|-----------------------------------------|

                                                  
E|-----------------------------------|----------------------------------|
B|----5---8--5------------------7----|----------------------------------|
G|--5h6---------7q--5h----------7----|----------------------------------|
D|----7-----------------7--5h7-------|--5h7-------5h-------------5--5--7|
A|---------------------------------0-|----------------6--7----/7--------|
E|-----------------------------------|-------8/9------------0-----------|

D7 - A7 - E7 - D7 - A7 - E7 - A7 - D7 - A7 - D7 - A7 - E7 - D7 - A7 - E7
Comments