Eric Clapton - Crossroads Chords & Tabs

 

Crossroads Chords & Tabs

Eric Clapton Chords & Tabs

Version: 2 Type: Tab 0 ratings
1 star 2 stars 3 stars 4 stars 5 stars
comments

Crossroads Tab

                                  Crossroads                                    
             Robert Johnson (arranged by Cream)

Eric Clapton


                                                          
E||---------------------------|--------------------------|
B||---------------------------|--------------------------|
G||--2--2--0--2--2h0h2h-0-----|--2--2--0--2~-0--2--0-----|
D||--2------------------------|--2-----------------------|
A||--0---------------------3b-|--0--------------------3b-|
E||---------------------------|--------------------------|


                                                        
---------------------------|---------------------------|
-----2--0--2---------------|-----2---------------------|
-----2--0--2--2h0-2--0-----|-----2--0--2--2h0-2--0-----|
---------------------------|---------------------------|
--0---------------------3b-|--0---------------------3b-|
---------------------------|---------------------------|


                                                      
---------------2----------|-------2-------2----------|
-------1--1---------1-----|----------1---------1-----|
------------2-------------|------------2-------------|
--0--0--------------------|--0--0--------------------|
-----------------------3b-|-----------------------3b-|
--------------------------|--------------------------|


                                                      
--------------------------|--------------------------|
-----2--0--2~-------------|-----2--0-----------------|
-----2--0--2~--0-2--0-----|-----2--0--2~--0-2--0-----|
--------------------------|--------------------------|
--0--------------------3b-|--0--------------------3b-|
--------------------------|--------------------------|


                                                        
--------------------------|----------------------------|
--------------------------|----------------------------|
--------------------------|---------5b----7h5----5b--5-|
-----2--2--2--------2-----|----5-7-----7------7--------|
--0--2-----------2--2--3/-|--7-------------------------|
-----0--------0-----0-----|----------------------------|


                                                      
-------------5---------------|-----------------------|
-----------5---8h5---5-------|---------5-------------|
--7~---5h6---------7---5h6---|-----5h6---------------|
-----------------------------|--7--7-----------------|
-----------------------------|------------7~---------|
-----------------------------|-----------------------|


                                                      
--------------------------|--------------------------|
--------------------------|--------------------------|
--------------------------|--2--2--4-----2--2--4--2--|
--2-----4-----2-----4-----|--0--0--0--0--0--0--0--2--|
--0--0--0--0--0--0--0--0--|-----------------------0--|
--------------------------|--------------------------|


                                                       
--------------------------|---------------------------|
--------------------------|---------------------------|
----2--0--2--2h0h2h-0-----|-----2--0--2~-2h0-2--0--2--|
--------------------------|------------------------0--|
-----------------------3b-|--0------------------------|
--------------------------|---------------------------|


                                                      
--------------------------|--------------------------|
--------------------------|--------------------------|
--2--2--4--2--2--2--4--2--|--2--2--4--2--2--2--4--2--|
--0--0--0--0--0-----0--0--|--0--0--0--0--0--0--0-----|
--------------------------|--------------------------|
--------------------------|--------------------------|


                                                        
---------------------------|---------------------------|
---------------------------|---------------------------|
--2--2--0--2--2h0h2--0-----|-----2--0--2--2h0-2--0-----|
--2------------------------|--2------------------------|
--0---------------------3b-|--0---------------------2--|
---------------------------|------------------------0--|


                                                      
--------------------------|--------------------------|
--------------------------|--------------------------|
-----------------------2--|--2-----4-----2--2--4--2--|
-----2-----------------0--|--0-----0--0--0--0--0-----|
--2-----4--2--2--2--4--0--|-----0--------------------|
--0-----0--0--0--0--0--2--|-----2--------------------|


                                                       
---------------------------|--------------------------|
----------------0h2h-0-----|--------------------------|
--2--2--0--2--2h0h2h-0-----|-----2--0--2~-0-2h0-------|
--2------------------------|-----------------------2--|
--0---------------------3b-|--0--------------------0--|
---------------------------|--------------------------|


                                                                                
--------------------------|--------------------------|-------------------------|
--------------------------|--------------------------|-------------------------|
-----------------------0--|--2-----4--2-----2--4--2--|----2--0--2---0-2~-0-----|
--2--2--4-----2--2--4--0--|--0--0--0--0--0--0--0--2--|-------------------------|
--0--0--0--0--0--0--0-----|-----------------------0--|----------------------3b-|
--------------------------|--------------------------|-------------------------|


                                                      
--------------------------|--------------------------|
--------------------------|--------------------------|
-----2--0--2---0-2~-0--2--|--2--2--4-----2-----4--2--|
-----------------------0--|--0--0--0--0--0--0--0--0--|
--0-----------------------|--------------------------|
--------------------------|--------------------------|


                                                                                
--------------------------|-------------------------|--------------------------|
--------------------------|-------------------------|--------------------------|
--2--2--4-----2--2--4--2--|----2--0--2---0-2--0-----|-----2--0--2---0-2--0-----|
--0--0--0--0--0--0--0--2--|-------------------------|--2-----------------0-----|
-----------------------0--|----------------------3b-|--0--------------------2--|
--------------------------|-------------------------|-----------------------0--|


                                                                                
--------------------------|--------------------------|-------------------------|
--------------------------|--------------------------|-------------------------|
--------------------------|--2-----------2--2--4--2--|----2--0--2~--0-2--0-----|
--------------------------|--0--0--0--0--0--0--0--2--|-------------------------|
--2-----4--4--2--2--4--2--|--0--------------------0--|----------------------3b-|
--0--0--0--0--0--0--0--0--|--2-----------------------|-------------------------|


                                                      
--------------------------|--------------------------|
--------------------------|--------------------------|
-----2--0--2~--0-2--0-----|--------------------------|
--2--------------------2--|--2--2--4-----2--2--4--0--|
--0--------------------0--|--0--0--0--0--0--0--0-----|
--------------------------|--------------------------|


                                                                                
--------------------------|-------------------------|--------------------------|
--------------------------|-------------------------|--------------------------|
--2-----4-----2--2--4--2--|----2--0--2~--0-2--0-----|-----2--0--2~--0-2--0--2--|
--0--0--0--0--0--0--0--2--|-------------------------|-----------------------0--|
-----------------------0--|----------------------3b-|--0-----------------------|
--------------------------|-------------------------|--------------------------|


                                                      
--------------------------|--------------------------|
--------------------------|--------------------------|
--2--2--4-----2--2--4-----|--2--2--4-----2-----4--2--|
--0--0--0--0--0--0--0--0--|--0--0--0--0--0--0--0--2--|
--------------------------|--------------------------|
--------------------------|--------------------------|


                                                      
--------------------------|--------------------------|
--------------------0-----|--------------------------|
--2--2--0--2---0-2~-0-----|-----2--0--2~--0-2--0-----|
--2-----------------------|--------------------------|
--0--------------------3b-|--0--------------------2--|
--------------------------|-----------------------0--|


                                                      
--------------------------|--------------------------|
--------------------------|--------------------------|
--------------------------|--2--2--------2--2--4--2--|
--------------------------|--0--0--0--0--0--0--0--2--|
--2--2--4-----2--2--4-----|-----------------------0--|
--0--0--0--0--0--0--0--0--|--------------------------|


                                                                             
--------------------------|------------------------|------------------------|
----------2--2h0----------|------------------------|------------------------|
----2--0--2--2h0h2h-0-----|----------------2----2--|--2~-----2-2~------4b---|
--------------------------|-----------2h4----4-----|-------4--------4-------|
-----------------------3b-|--0---------------------|------------------------|
--------------------------|------------------------|------------------------|


                                                          
----------------------------|--5-----5--5----------------|
------------------------5h7-|-----7--5--5h7-5--5--5------|
--------2---2-4-4/-6~-------|------------------7--5h6----|
----2h4---4-0---------------|-------------------------7--|
----------------------------|----------------------------|
----------------------------|----------------------------|


                                                    
--------------------------|-------5----------------|
--------------------------|----------8-------------|
--------------5~---7h5----|--7b---------7b-5-7~----|
--------5--7-----------7--|------------------------|
--5--7--------------------|------------------------|
--------------------------|------------------------|


                                                          
------------------------------|-----------------------5--|
-----------------------8------|--------------------5-----|
--5h7h5----5h-7/-9--9--9--9/7-|--5b------------5h6-------|
--------7---------------------|-------7h5-7--------------|
------------------------------|--------------------------|
------------------------------|--------------------------|


                                                             
---------------8--10--------|--8------8-----8---------------|
--8/-10~-10~----------10~---|--8h--10-8h10------------------|
----------------------------|-----------------9/7-5--7h5----|
----------------------------|----------------------------7--|
----------------------------|-------------------------------|
----------------------------|-------------------------------|


                                                             
----------------------------|--------------5----------------|
------5---------------------|--------5---5---8h5---5--------|
--5h6-6--7--5b--------------|--0h2---5h6---------7---5h7h5b-|
---------------7------------|-------------------------------|
------------------7/5-3--0--|----0--------------------------|
----------------------------|-------------------------------|


                                                                              
---------------------------|--------------------|----------------------------|
---------5-------------13b-|--------------------|--13b---15--15b-13b---------|
---------5h6---------------|----14--------------|----------------------14~---|
--7h5-7--------------------|--------------------|----------------------------|
-------------7~-7/---------|--------------------|----------------------------|
---------------------------|--------------------|----------------------------|


                                                                          
--------------------------------|----------------------------------------|
--------13b---------------------|----------------------------------------|
--14~-----------12-------12--12-|---------------------------------12--12-|
----------------12h14-14--------|--14/12-10--------------12/14-14--------|
--------------------------------|------------12h10-12~---0---------------|
--------------------------------|----------------------------------------|


                                                          
------------------12--------|----------------------------|
----------13------15b---15b-|----15b---15b---13--15------|
--12h14---------------------|------------------------14~-|
----------------------------|----------------------------|
----------------------------|----------------------------|
----------------------------|----------------------------|


                                                               
-------------------------|------------------------------------|
------13b--------15r-----|--13b------------------------12-----|
----------0-0-0----------|--------14h13-14~---------12-----12-|
-------------------------|--------------------12h14-----------|
-------------------------|------------------------------------|
-------------------------|------------------------------------|


                                                                              
------------------------------------|----------------------------------------|
------------------------------------|----------------------------------------|
------------------------------------|---------14~-14-----14-14~-14-16h14-----|
--14/12-10--12h10-----10--12/-14----|--14/16---------16------------------16--|
------------------12----------------|----------------------------------------|
------------------------------------|----------------------------------------|

[ Tab from: http://www.guitartabs.cc/tabs/e/eric_clapton/crossroads_tab_ver_2.html ]
                                                                  
------------------------------------|----------------------------|
------------------------------------|----------------------------|
--14~-----------14----14h16-16b-16b-|--14~-----------0h2h0-------|
----------14h16----16---------------|--------x--0h2--------2--0--|
------------------------------------|----------------------------|
------------------------------------|----------------------------|


                                                                                
--------------------------|--------------------------|-------------------------|
--------------------------|--------------------------|-------------------------|
--------------------------|--2-----4-----2--2--4--2--|----2--0--2~--0-2--0-----|
--2--2--4-----2--2--4--0--|--0--0--0--0--0--0--0--2--|-------------------------|
--0--0--0--0--0--0--0-----|-----------------------0--|----------------------3b-|
--------------------------|--------------------------|-------------------------|


                                                      
--------------------------|--------------------------|
--------------------------|--------------------------|
-----2--0--2~--0-2--0--2--|--2--2--4-----2--2--4-----|
-----------------------0--|--0--0--0--0--0--0--0--0--|
--0-----------------------|--------------------------|
--------------------------|--------------------------|


                                                      
--------------------------|--------------------------|
--------------------------|--------------------0-----|
--2--2--4-----2-----4--2--|--2--2--0--2---0-2~-0-----|
--0--0--0--0--0--0--0--2--|--2-----------------------|
--------------------------|--0--------------------3b-|
--------------------------|--------------------------|


                                                      
--------------------------|--------------------------|
--------------------------|--------------------------|
-----2--0--2~--0-2--0-----|--------------------------|
--------------------------|--------------------------|
--0--------------------2--|--2--2--4-----2--2--4-----|
-----------------------0--|--0--0--0--0--0--0--0--0--|


                                                      
--------------------------|--------------------------|
--------------------------|----------2--2h0----------|
--2--2--------2--2--4--2--|----2--0--2--2h0h2h-0-----|
--0--0--0--0--0--0--0--2--|--------------------------|
-----------------------0--|-----------------------3b-|
--------------------------|--------------------------|


                                                                     
-----------------------------|--17--17---------17-17------17-17-17--|
-----------17--17-17-17--17--|--17--17--17--17--------17------------|
-----------19b-----------19b-|--19b-x---19b-----------19b-----------|
-----------------------------|--------------------------------------|
--0--------------------------|--------------------------------------|
-----------------------------|--------------------------------------|


                                                                  
------------17--------------|----------------------17------------|
--20~-----------20----------|------------------17------20h17-----|
--------------------19b-17--|--19------17b-18----------------19--|
----------------------------|------19----------------------------|
----------------------------|------------------------------------|
----------------------------|------------------------------------|


                                                                  
------------20b---20--17h20h17-----|--17~--x-------------17------|
-------------------------------19--|---------19--20~---------20--|
--17b------------------------------|-----------------------------|
--------19-------------------------|-----------------------------|
-----------------------------------|-----------------------------|
-----------------------------------|-----------------------------|


                                                                        
----------------------------------|------------------------------------|
----------------------------------|------------------------------------|
--19r-17--19------17--19--19b-19--|--17~-------17-----17--------17--17-|
--------------19------------------|--------19--17h19-----19--17--------|
----------------------------------|------------------------------------|
----------------------------------|------------------------------------|


                                                   
--------------------------------------------------|
--------------------------------------------------|
--17-------17----17-17-------17----17----------17-|
--17h19-19----19----17h19-19----19----17----17----|
--------------------------------------17h19-19----|
--------------------------------------------------|


                                        
---------------------------------------|
-------------------------------17---17-|
--17----x-17-19--17b-----------19b-----|
--17h19-x-19-0-------19h17h19----------|
---------------------0-----------------|
---------------------------------------|


                                                                           
--------------------------------------------|-----------------------------|
--17-17------17-17-17-20h17----17-----------|------20r--------------------|
--------19b-----------------19----17h19h17--|--------------17--19--17~--x-|
--------------------------------------------|--19-------------------------|
--------------------------------------------|-----------------------------|
--------------------------------------------|-----------------------------|


                                                                  
--------------------------------17--|------------17------17------|
------------------------17--19------|--20~-----------20------20~-|
------------17--17------------------|----------------------------|
--19h17-----17--17------------------|----------------------------|
--------19----------19--------------|----------------------------|
------------------------------------|----------------------------|


                                                               
------17------17h20h17-----20b---|--19b---17------17----------|
----------20-----------20--------|------------20------20~-----|
---------------------------------|----------------------------|
---------------------------------|----------------------------|
---------------------------------|----------------------------|
---------------------------------|----------------------------|


                                                                
--17------------------------------|----------------------------|
------20--17--20------------------|--17r-----------------------|
------------------19--17--19------|--------19--19b-17h-19~-----|
------------------------------19--|----------------------------|
----------------------------------|----------------------------|
----------------------------------|----------------------------|


                                                                             
-----------------------------------------|----------------------------------|
---------------17--19--------------------|---------------17------17-17---17-|
--17h19h17-----17--19------------17b-19--|--------17h18-----19------18------|
-----------19----------17h19-19----------|--19~-----------------------------|
-----------------------------------------|----------------------------------|
-----------------------------------------|----------------------------------|


                                                                                
--------------------------------------|----------------------------------------|
--------------------------------20h17-|------20h17-----20h17-----20h17-----20~-|
--------------------17~--17-----------|--19--------19--------19--------19------|
--19h17-----17--19----------19--------|----------------------------------------|
--------19----------------------------|----------------------------------------|
--------------------------------------|----------------------------------------|


                                                                        
------17----------------------------|----------------------------------|
---------20-17----------------------|----------------------------------|
---------------19r-17-19h17---------|--17b-------------17--19--17--19--|
----------------------------19--19--|--------19h17-----17--19--17--19--|
------------------------------------|--------------19------------------|
------------------------------------|----------------------------------|


                                             
--------------------------------------------|
--------------------------------------------|
--17--17--17-------17-17-----17----17-17----|
--17--19--17h19-19--------19-17h19-19-17h19-|
--------------------------------------------|
--------------------------------------------|


                                                                            
------------------------------------|--------------------------------------|
--------19--19b-19--19b-19--19b-19--|--19b-19-19b----19b----19b----19b-----|
--17-17-19--19b-19--19b-19--19b-19--|--19b-19-----19-----19-----19-----19--|
--19-19-----------------------------|--------------------------------------|
------------------------------------|--------------------------------------|
------------------------------------|--------------------------------------|


                                          
-----------------------------------------|
-----------------------------------------|
--17---x-----------17-----17----17-17----|
---------19h17-----17h19--19-19----17h19-|
---------------19------------------------|
-----------------------------------------|


                                                                            
--------------------------------------|------17-----------17------------17-|
---------17-20h17-----20h17-----20~---|---------20-17-20b----20-17-20b-----|
-----17-----------19--------19--------|------------------------------------|
--19----------------------------------|------------------------------------|
--------------------------------------|------------------------------------|
--------------------------------------|------------------------------------|


                                         
-------------17-------------------------|
--20-17-20b-----20-17-------------------|
----------------------19r-17----19--17b-|
-----------------------------19---------|
----------------------------------------|
----------------------------------------|


                                                                              
---------------------17-----------------------|------19b---19b---17--19------|
------------------17----20h17----17-----------|--------------------------19--|
------------17h18-------------19----17h19h17b-|------------------------------|
--19h17-19------------------------------------|--19--------------------------|
----------------------------------------------|------------------------------|
----------------------------------------------|------------------------------|


                                                                          
--17~------17-17~-17-17-----19b---|---------20b---20--17h20h17-----17-17~|
--------19--------------18--------|--x--17---------------------20--------|
----------------------------------|--x-----------------------------------|
----------------------------------|--------------------------------------|
----------------------------------|--------------------------------------|
----------------------------------|--------------------------------------|


                                                                
------------17--------------------|----------------------------|
------20b------20-17--------------|----------17----------------|
---------------------19r-17-19h17-|------18--------------x-----|
----------------------------------|--19----------19~-----x-----|
----------------------------------|----------------------x--0--|
----------------------------------|----------------------------|


                                                                                
--------------------------|--------------------------|-------------------------|
--------------------------|--------------------------|-------------------------|
--------------------------|--2-----4-----2--2--4--2--|----2--0--2~--0-2--0-----|
--2--2--4-----2--2--4--0--|--0--0--0--0--0--0--0--2--|-------------------------|
--0--0--0--0--0--0--0-----|-----------------------0--|----------------------3b-|
--------------------------|--------------------------|-------------------------|


                                                      
--------------------------|--------------------------|
--------------------------|--------------------------|
-----2--0--2~--0-2--0--2--|--2--2--4-----2--2--4-----|
-----------------------0--|--0--0--0--0--0--0--0--0--|
--0-----------------------|--------------------------|
--------------------------|--------------------------|


                                                      
--------------------------|--------------------------|
--------------------------|--------------------0-----|
--2--2--4-----2-----4--2--|--2--2--0--2---0-2~-0-----|
--0--0--0--0--0--0--0--2--|--2-----------------------|
--------------------------|--0--------------------3b-|
--------------------------|--------------------------|


                                                                          
--------------------------|--------------------------|-------------------|
--------------------------|--------------------------|-------------------|
-----2--0--2~--0-2--0-----|--------------------------|--2----------------|
--------------------------|--------------------------|--0----------------|
--0--------------------2--|--2--2--4-----2--2--4-----|-------------------|
-----------------------0--|--0--0--0--0--0--0--0--0--|-------------------|


                                                                   
--------------------------------|----------|----------------------|
--------------------------------|----------|--------8----8--------|
----2h0-2h0----------0----------|----------|--5h-6--6----6--------|
------------2--0h2-2---0h2h0----|----------|--5----------5--------|
-----------------------------3b-|----------|--0----------0--------|
--------------------------------|----------|----------------------|


                                  
--------------------------------||
------5--8h5---5----------------||
--5/6--------7---5h7h5----------||
-----------------------7--7/----||
-----------------------------0--||
-----------------------------0--||
Comments