Eric Clapton - Cocaine Chords & Tabs

 

Cocaine Chords & Tabs

Eric Clapton Chords & Tabs

Version: 3 Type: Tab 0 ratings
1 star 2 stars 3 stars 4 stars 5 stars
comments

Cocaine Tab

   
Eric Clapton
Cocaine
By Eric Morgan...yankeefan146
VERY KEWL SONG

STANDARD TUNING: E A D G B E
[ Tab from: http://www.guitartabs.cc/tabs/e/eric_clapton/cocaine_tab_ver_3.html ]
E|---------------------------------------------------------------|
B|----99--7--9------7--------------------------------------------|
G|----99--7--9------7--------------------------------------------|
D|----99--7--9------7--------------------------------------------|
A|----77--5--7------5--------------------------------------------|
E|---------------------------------------------------------------|_____
\          / |    |  ______  |     |----     |----  _____ |\   | | 
 \        /  |____| /      \ |     |__       |___  /     \| \  | |  ___   
  \  /\  /   |    | |      | |     |             | |     ||  \ | |     \
   \/  \/    |    | \______/ |____ |____     ____| \_____/|   \|  \____/
CHORUS:
E|---------------------------------------------------------------|
B|----9---7---5---4----------------------------------------------|
G|----9---7---5---4----------------------------------------------|
D|----9---7---5---4----------------------------------------------|
A|----7---5---3---2----------------------------------------------|

SOLO in E...watever u want while guitar 2 plays main riff

HOPE U LIKE TAB
CHOW
Comments