Eric Clapton - Cocaine Chords & Tabs

 

Eric Clapton Chords & Tabs

Version: 1 Type: Tab 1 rating
1 star 2 stars 3 stars 4 stars 5 stars
comments

Cocaine Tab

Eric Clapton, Cocaine.
Tabbed by M .Beane, beanee@intplsrv.net.
  
After hearing the song I figured the tab would go like this:

Standard Tuning

(Chorus)
---------------------
---------------------
--9-9-7-9--9-7-------
--9-9-7-9--9-7-------
--7-7-5-7--7-5-------
---------------------

And when he says:
[ Tab from: http://www.guitartabs.cc/tabs/e/eric_clapton/cocaine_tab.html ]
"She don't lie, she don't lie, she don't lie.....Cocaine"

------------------------------
------------------------------
--9-9-7--7-7-5--5-5-4---------
--9-9-7--7-7-5--5-5-4----(HOLD)
--7-7-5--5-5-3--3-3-2---------
------------------------------

After that start over with the chorus.

If you listened to this song before, it should be simple to learn. 
:: Ultimate Guitar Archive :: 
http://www.ultimate-guitar.com 

Comments