Eraserheads - Tuwing Umuulan At Kapiling Ka Chords & Tabs

 

Tuwing Umuulan At Kapiling Ka Chords & Tabs

Eraserheads Chords & Tabs

Version: 1 Type: Tab 0 ratings
1 star 2 stars 3 stars 4 stars 5 stars
comments

Tuwing Umuulan At Kapiling Ka Tab

Eto yung solo sa tuwing umuulan ng eheads
my mga lead pa yan tska naun..bsta gwin mo nlng tama yan
my epeks pksi na gnmit kya mkhang iba eh.
e-----------------------------------------------------|
B----------------------------------13-13--16-15-13-11-|
G----7--8--10-8--10--12-----12--10--------------------|
D-----------------------------------------------------|
A-----------------------------------------------------|
E-----------------------------------------------------|

e----------------------------------------|
B----------15-16-16--16-15--11-13--------|
G-12-14-15-------------------------------|
D----------------------------------------|
A----------------------------------------|
E----------------------------------------|

Tabbed by
Raffy Ronquillo
questions? msg ako s frnster
[ Tab from: http://www.guitartabs.cc/tabs/e/eraserheads/tuwing_umuulan_at_kapiling_ka_tab.html ]
Comments