Eraserheads - Tamagotchi Baby Chords & Tabs

 

Tamagotchi Baby Chords & Tabs

Eraserheads Chords & Tabs

Version: 1 Type: Tab 0 ratings
1 star 2 stars 3 stars 4 stars 5 stars
comments

Tamagotchi Baby Tab

   
Song: Tamagotchi Baby
Artist/Band: Eraserheads
Album: Aloha Milkyway
Submitted by: bogey

Intro:

E|------------------------------|
B|------------------------------|
G|------------------------------| 4x
D|-------4-5---4-5---4-5--------|
A|------------------------------|
E|------------------------------|

Verse:
          A                G
E|-------------------------------------------------------------|
B|-------------------------------------------------------------|
G|-------------------------------------------------------------|
D|------7-7-7-7---------5-5-5-5--------------------------------| 4x
A|------7-7-7-7---------5-5-5-5--------------------------------|
E|------5𧈅5---------33-3-3--------------------------------|
   Tamagotchi baby, baby you're the one...

E|----------------------------------------------------|
B|----------------------------------------------------|
G|----------------------------------------------------|
D|------7-7----7-7-7----55-------------------------| 2x
A|----------------------------------------------------|
E|----------------------------------------------------|
   Turn it on...

Pre-chorus:
           A               G
E|-------------------------------------------------------------|
B|-------------------------------------------------------------|
G|-------------------------------------------------------------|
D|------7-7-7-7---------5-5-5-5--------------------------------| 4x
A|------7-7-7-7---------5-5-5-5--------------------------------|
E|------5𧈅5---------33-3-3--------------------------------|
   Automatic lover...

Chorus:

E|-------------------------------------------------------------|
B|-------------------------------------------------------------|
G|-------------------------------------------------------------|
D|----7-7---------5-----5------57-----------------------------| 4x
A|---------4-5-7-----7-----7-----------------------------------|
E|-------------------------------------------------------------|
   Wa, wa, wa, wakarimasen...

Verse 2:
(Do verse chords)
Talking to my baby on the LCD
She said i need a triple A battery
User-friendly interface getting wet
Dips and little treasures of a pleasure pet

E|----------------------------------------------|
B|----------------------------------------------|
G|----------------------------------------------|
D|------77---00-0---4h5---4h5-----------------| 4x
A|----------------------------------------------|
E|----------------------------------------------|
   Scream so guilty...

(Repeat pre-chorus)

Chorus:
[ Tab from: http://www.guitartabs.cc/tabs/e/eraserheads/tamagotchi_baby_tab.html ]
E|-------------------------------------------------------------|
B|-------------------------------------------------------------|
G|-------------------------------------------------------------|
D|----0-0---------5-----5------57-----------------------------| 3x
A|---------4-5-7-----7-----7-----------------------------------|
E|-------------------------------------------------------------|
   Wa, wa, wa, wakarimasen...

E|-------------------------------------|
B|-------------------------------------|
G|-------------------------------------|
D|----0-0----------5-------------------| 
A|---------4-5-7-----7-5-4-------------|
E|-------------------------------------|

Adlib: (di ko pa alam eh...)

(Drums only)
Scream so guilty...

(Repeat 1st stanza)
(Repeat pre-chorus)

Chorus:

E|-------------------------------------------------------------|
B|-------------------------------------------------------------|
G|-------------------------------------------------------------|
D|----0-0---------5-----5------57-----------------------------| 3x
A|---------4-5-7-----7-----7-----------------------------------|
E|-------------------------------------------------------------|
    Wa, wa, wa, wakarimasen...

E|-------------------------------------|
B|-------------------------------------|
G|-------------------------------------|
D|----0-0----------5-------------------| 
A|---------4-5-7-----7-5-4-0-4-0-------|
E|-------------------------------------|

E|-------------------------------------------------------------|
B|-------------------------------------------------------------|
G|-------------------------------------------------------------|
D|----7-7---------5-----5------57-----------------------------| 4x
A|---------4-5-7-----7-----7-----------------------------------|
E|-------------------------------------------------------------|
    Wa, wa, wa, wakarimasen...

E|-------------------------------------------------------------|
B|-------------------------------------------------------------|
G|-------------------------------------------------------------|
D|----0-0---------5-----5------57-----------------------------| 8x
A|---------4-5-7-----7-----7-----------------------------------|
E|-------------------------------------------------------------|
    Wa, wa, wa, wakarimasen...

Outro:

E|-------------------------------------------------------------|
B|-------------------------------------------------------------|
G|-------------------------------------------------------------|
D|----0-0---------5-----5------57-----------------------------| 3x
A|---------4-5-7-----7-----7-----------------------------------|
E|-------------------------------------------------------------|
    Tamagotchi baby, baby you're the one


That's it! Paki-rate na lang...
Comments