Eraserheads - Pare Ko Chords & Tabs

 

Pare Ko Chords & Tabs

Eraserheads Chords & Tabs

Version: 2 Type: Tab 0 ratings
1 star 2 stars 3 stars 4 stars 5 stars
comments

Pare Ko Tab

Title: Pare Ko
Artist: Eraserheads
Album: Ultraelectromagneticpop!
Tabbed by Josh Bier

|-15------------|-12-15--15---15S=|=17---19--17--15-|-17----15----12p10--------|
|---------12-15-|-----------------|-----------------|----17----15-------12--10-|
|---------------|-----------------|-----------------|--------------------------|
|---------------|-----------------|-----------------|--------------------------|
|---------------|-----------------|-----------------|--------------------------|
|---------------|-----------------|-----------------|--------------------------|

[ Tab from: http://www.guitartabs.cc/tabs/e/eraserheads/pare_ko_tab_ver_2.html ]
|---------------------------|--------------------------|
|---------------------------|--------------------------|
|-12--------12-12--------12-|-14b16-----12-14p12-------|
|-----12s14--------12s14----|--------14----------14-12-|
|---------------------------|--------------------------|
|---------------------------|--------------------------|


|----------------------|----------------------------|-----------|
|----------------------|-15--------15-15b17--15b17r=|=15--------|
|----------12-14b16----|-----14b16------------------|-----------|
|----12s14-------------|----------------------------|-----------|
|----------------------|----------------------------|-----------|
|----------------------|----------------------------|-----------|


Tablature Legend
----------------
 h   - hammer-on
 p   - pull-off
 b   - bend
 pb  - pre-bend
 r   - bend release (if no number after the r, then release immediately)
 s   - legato slide
 S   - shift slide
 =   - hold bend; also acts as connecting device for hammers/pulls
Comments