Eraserheads - Hula Chords & Tabs

 

Hula Chords & Tabs

Eraserheads Chords & Tabs

Version: 1 Type: Tab 0 ratings
1 star 2 stars 3 stars 4 stars 5 stars
comments

Hula Tab

Song: Hula
Artist/Band: Eraserheads
Album: Carbon Stereoxide
Submitted by: bogey
Tuning: Drop D

Intro :
[ Tab from: http://www.guitartabs.cc/tabs/e/eraserheads/hula_tab.html ]
E|--------------------------------------------------------------|
B|--------------------------------------------------------------|
G|--------------------------------------------------------------|
D|---1----3----5----8---------1----3----5----5-3----------------|
A|---1----3----5----8---------1----3----5----5-3----------------| 2x
D|---1----3----5----8---------1----3----5----5-3----------------|

E|--------------------------------------------------------------|
B|--------------------------------------------------------------|
G|--------------------------------------------------------------|
D|--------------------------------------------------------------|
A|--1-1-1-3-5-6-----------1-1-1-3-3-3---3-5----------------| 2x
D|--------------------------------------------------------------|

Sa susunod na lang yung natitira...
Comments