Eraserheads - Hard To Believe Chords & Tabs

 

Hard To Believe Chords & Tabs

Eraserheads Chords & Tabs

Version: 2 Type: Tab 0 ratings
1 star 2 stars 3 stars 4 stars 5 stars
comments

Hard To Believe Tab

Hard To Believe
EraserHeads

Tabbed By: alay ng davao, maganda itong kanta to! 

intro:
e--------------------------------------------------|
b--5-5h6-5---------------------------1-1h3-1-------|
g----------7-5-3-2-2-2h3-2---------1---------1-----|
d--------------------------3-----3-------------3---| then continue in chords
a------------------------------1-------------------|
e--------------------------------------------------|

(second guitar)
e------12-----12-----12---12-10-9------------------|
b-12-12--11-11--10-10-------------11-12------------|
g--------------------------------------------------|
d--------------------------------------------------|
a--------------------------------------------------|
e--------------------------------------------------|

e------12-----12-----12---12/14-12-----------------|
b-12-12--11-11--10-10-------------14-12-12---------|
g--------------------------------------------------|
d--------------------------------------------------|
a--------------------------------------------------|
e--------------------------------------------------|

[ Tab from: http://www.guitartabs.cc/tabs/e/eraserheads/hard_to_believe_tab_ver_2.html ]
Ad lib:
e----0-----0---------------------------------------|
b----1-----0---------------------------------------|
g------0-----0----0-2-3-2-0------------------------|
d---2----2-------2----------3----------------------| 
a--3-----2------0----------------------------------|
e-------0------------------------------------------|

e------1-----------3----------3----------3---------|
b------3---3--3----3---3--3---3---3--3---3----3----|
g----2---2---2---2----2--2--2----2--2--2----2---2--|(2x)
d--0-----------------------------------------------| 
a--------------------------------------------------|
e--------------------------------------------------|

(ending):
e------------------------------------------------|------------|
b--5-5h6-5---------------------------1-1h3-1-----|-------0----|
g----------7-5-3-2-2-2h3-2---------1---------1---|-----0------|
d--------------------------3-----3-------------3-|---2--------|
a------------------------------1-----------------|-3----------|
e------------------------------------------------|------------|

Pls Rate it nalang!
Siguradong sigurado ako dyan!
makinig kayo sa tugtug para makuha nyo ang start ng second guitar
For Comments,email that to me:alay_slash@yahoo.com
Comments