Eraserheads - Fill Her Chords & Tabs

 

Fill Her Chords & Tabs

Eraserheads Chords & Tabs

Version: 1 Type: Tab 0 ratings
1 star 2 stars 3 stars 4 stars 5 stars
comments

Fill Her Tab

Title: Fill Her
Artist: Eraserheads
Album: Cutterpillow

Transcribed by: Alexander Lazaro (alecs_09@yahoo.com)
                Andrea Lazaro (andrea@inbox.net)

Standard Tuning, Capo 4th Fret


INTRO

E---------0---5------0----------0---3------0----------0---3------0----------------------
B--5---5----------5------3---3----------3------1---1----------1------0-----0--1----3----
G------------------------------------------------------------------------0------0----0--
D---------------------------------------------------------------------------------------
A--3--3----3--3--3----3--2--2----2--2--2----2--0--0----0--0--0----0-----2-----0----2----
E--------------------------------------------------------------------3------------------

E---------0---5------0----------0---3------0----------0---3--2s3-3----------------------
B--5---5----------5------3---3----------3------1---1-------------------0--1----3--------
G--------------------------------------------------------------------0------0----0------
D---------------------------------------------------------------------------------------
A--3--3----3--3--3----3--2--2----2--2--2----2--0--0----0--0---------2-----0----2--------
E----------------------------------------------------------------3----------------------


VERSE (4x)

E---------------------------------------------------------------------------------------
B--5------5---5------5---3------3---3------3---1------1---1------0---0-----0--1----3----
G------0----------0----------0----------0----------0----------1----------0------0----0--
D---------------------------------------------------------------------------------------
A--3--3----3--3--3----3--2--2----2--2--2----2--0--0----0--0--0----0-----2-----0----2----
E--------------------------------------------------------------------3------------------


CHORUS
[ Tab from: http://www.guitartabs.cc/tabs/e/eraserheads/fill_her_tab.html ]
E---------0---5------0----------0---3------0----------0---3------0----------------------
B--5---5----------5------3---3----------3------1---1----------1------0-----0--1----3----
G------------------------------------------------------------------------0------0----0--
D---------------------------------------------------------------------------------------
A--3--3----3--3--3----3--2--2----2--2--2----2--0--0----0--0--0----0-----2-----0----2----
E--------------------------------------------------------------------3------------------

E---------0---5------0----------0---3------0----------0---3------0---3----3-------------
B--5---5----------5------3---3----------3------1---1----------1---------0----1----3-----
G-------------------------------------------------------------------------------0----0--
D---------------------------------------------------------------------------------------
A--3--3----3--3--3----3--2--2----2--2--2----2--0--0----0--0--0----0----2-----0----2-----
E--------------------------------------------------------------------3------------------


OUTRO

E---------0---5------0----------0---3------0----------0---3------0----------------------
B--5---5----------5------3---3----------3------1---1----------1------0-----0--1----3----
G------------------------------------------------------------------------0------0----0--
D---------------------------------------------------------------------------------------
A--3--3----3--3--3----3--2--2----2--2--2----2--0--0----0--0--0----0-----2-----0----2----
E--------------------------------------------------------------------3------------------

E---------0---5------0----------0---3------0----------0---3--2--3-----------------------
B--5---5----------5------3---3----------3------1---1------------0-----------------------
G---------------------------------------------------------------0-----------------------
D---------------------------------------------------------------0-----------------------
A--3--3----3--3--3----3--2--2----2--2--2----2--0--0----0--0-----2-----------------------
E---------------------------------------------------------------3-----------------------



Mabuhay ang UST Pay High Batch 2001!



Comments