Eraserheads - Ang Huling El Bimbo Chords & Tabs

 

Eraserheads Chords & Tabs

Version: 1 Type: Tab 0 ratings
1 star 2 stars 3 stars 4 stars 5 stars
comments

Ang Huling El Bimbo Tab

   
Song: Ang Huling El Bimbo
Artist/Band: Eraserheads
Album: Circus
Submitted by: bogey

Intro: 

E|---3------5------8-------3-------|
B|---3------5------8-------3-------|
G|---0------0------0-------0-------|
D|---0------0------0-------0-------|
A|---2------4------7-------2-------| 2x
E|---3------5------8-------3-------|

Verse:
G-A7-C-G

Refrain:
Em-G-C-D

Chorus:
(Do Intro Chords)

Verse 2:
G-A7-C-G
 
Repeat Chorus

Bridge:
G-A7-C-G

Repeat Chorus 2x

E|-----------------------------------------|
B|-----------------------------------------|
G|-----------------------------------------|
D|-----------------------------------------|
A|----2-3-4-5-5/7-4-0----0-2-3-5-5/7------| 2x
E|------------------------------------3----|
       La la la la...

E|-----------------------------------------|
B|-----------------------------------------|
G|-----------------------------------------|
D|-----------------------------------------|
A|----2-3-4-5-5/7-4-0----0-2-3-5-5/7------| 
E|------------------------------------3----|
[ Tab from: http://www.guitartabs.cc/tabs/e/eraserheads/ang_huling_el_bimbo_tab.html ]
E|----------------------------------------------------------|
B|----------------------------------------------------------|
G|----------------------------------------------------------|
D|----------------------------------------------------------|
A|---2-3-4-5-0h2---0h2---0h2---0h2----0h2----0h2--- > 12x--|
E|---------------3-3---3-3---3-3---3-3----3-3----3-3 >------|

E|--------------------------------------------------------------------------|
B|--------------------------------------------------------------------------|
G|--------------------------------------------------------------------------|
D|--------------------------------------------------------------------------|
A|-0h2---0h2---0h2---0h2---0h2---0h2---0h2---0h2---0h2---0h2---0h2---0h2----|
E|----3-3---3-3---3-3---3-3---3-3---3-3---3-3---3-3---3-3---3-3---3-3---3-3-|

E|------------------------------------------------------------|
B|------------------0-----0----------------------0-----0------|
G|------------0----------------------------0------------------|
D|------------------------------------------------------------|
A|----2-3-4-5---5-4---4-3---3-2----2-3-4-5---5-4---4-3---3-2--| 6x
E|------------------------------------------------------------|
Comments