Era - Ameno Chords & Tabs

 

Ameno Chords & Tabs

Era Chords & Tabs

Version: 1 Type: Tab

Ameno Tab

   
----------------------------------------------------------------------------
			     AMENO - ERA
----------------------------------------------------------------------------
Tabbed by: Ed Ricker
Email: ThechosenExodus@hotmail.com
Band Website: http://era-music.artistes.universalmusic.fr/

This is my first ever tab of a solo so it might not be perfect but I believe
itís damn close.  Listen to the song for timing.  Hyphens donít necessary show
perfect timing.  24-Fret guitar required, unless you want to do some serious
bending on the high notes.

Tuning:  Regular eBGDAE 6-string

First Solo  1:17
e|--------------------------24-24-24---------------10b-----------|
B|---12b-11~---9---------------------11b---9~--------------------|
G|------------------12-------------------------------------------|
D|-9--------------------9----------------------------------------|
A|---------------------------------------------------------------|
E|---------------------------------------------------------------|

Second Solo 2:21
e|---------------------------------------------------------------------|
B|---------------------------------------------------------------------|
G|------------------14b-14~---------------12~--------------------------|
D|-12~-12-14-15------------14-14~--14-15------15--14-12--7b--7~--------|
A|---------------------------------------------------------------------|
E|---------------------------------------------------------------------|
[ Tab from: http://www.guitartabs.cc/tabs/e/era/ameno_tab.html ]
e|-------------------------13-12~|-12--------------------|
B|-15-14-------------15----------|----15-13-12--/12------|
G|----------12-14-15-------------|-----------------------|
D|-------------------------------|-----------------------|
A|-------------------------------|-----------------------|
E|-------------------------------|-----------------------|

e|-------------------------------12-17b--17~----------|
B|--12--------------14-14-15-----------------16-16----|
G|----------13-15-------------------------------------|
D|------15--------------------------------------------|
A|----------------------------------------------------|
E|----------------------------------------------------|

e|-----12-14-17-14-12-----13-/19-19~-----------19-17-16-/21~--23/24~----|
B|-16------------------15------------17-19-20---------------------------|
G|----------------------------------------------------------------------|
D|----------------------------------------------------------------------|
A|----------------------------------------------------------------------|
E|----------------------------------------------------------------------|

e|---------------------------|
B|---------------------------|
G|-161514----13b----12~------|
D|--------15-----14----------|
A|---------------------------|
E|---------------------------|




| b  bend
| /  slide up
| \  slide down
| h  hammer-on
| p  pull-off
| ~  vibrato
| +  harmonic
| x  Mute note
============================================================================