Entombed - Left Hand Path Chords & Tabs

 

Left Hand Path Chords & Tabs

Entombed Chords & Tabs

Version: 1 Type: Tab 0 ratings
1 star 2 stars 3 stars 4 stars 5 stars
comments

Left Hand Path Tab

Here are the first 4 solos to Left Hand Path, I already posted
the very last solo of the song(at the end of the song,the slow part)
yesterday.Here you go.Tuned to B(2 1/2 steps down)
/ - slide
p - pulloff
H - hammeron
^ - bend (h = half step,f = full step)
~~~~~ - vibrato
Intro Solo:(this is picked fast,kind of sloppily)w/Wah
|-f---f---f---f-------12-12-12-15-12-12-12-----12-12-12------------|
|15^-15^-15^-15^~~~~-----------------------15-----------15-12-12-12|
|------------------------------------------------------------------|
|------------------------------------------------------------------|
|------------------------------------------------------------------|
|------------------------------------------------------------------|

|---------------------------------------------15---/19-19-19-17-17-17|
|---12-12-12-15-12-12-12----12-12-12--15^-~~~~~----------------------|
|14----------------------14------------------------------------------|
|--------------------------------------------------------------------|
|--------------------------------------------------------------------|
|--------------------------------------------------------------------|

|15-15-15---------15-15-15----------15-15-15-17-17-17-19-19-19-17-17-17|
|--------19-19-19----------17-17-17------------------------------------|
|----------------------------------------------------------------------|
|----------------------------------------------------------------------|
|----------------------------------------------------------------------|
|----------------------------------------------------------------------|

                                                               1 1/2 (sl.down)
|15-15-15----------15-15-15-17-17-17-19-17-15-20-19-17-22-20-19--22^\\\\|
|---------19-19-19------------------------------------------------------|
|-----------------------------------------------------------------------|
|-----------------------------------------------------------------------|
|-----------------------------------------------------------------------|
|-----------------------------------------------------------------------|

2nd solo(if you can call it that, its just a short interlude
after the first half time riff)(it starts at 2:05, to clear up any confusion)

|-------------------------------H--H------------h--------------------------|
|------H------------H--H---10/12-13-15--12/13-13-15--15~~~~~~~~~~----------|
|-H---9-10--H--H---9-10-12-------------------------------------------------|
|9-10------9-10-12---------------------------------------------------------|
|--------------------------------------------------------------8-----------|
|---------------------------------------------------------8--9---0--8--9--1|


|--------------------------------------------|
|--------------------------------------------|
|--------------------------------------------|x 2
|---9-10-9----------------------------11-10-8|
|7-----------10-11-10----8-10-11---8---------|
|----------8-----------9---------------------|
[ Tab from: http://www.guitartabs.cc/tabs/e/entombed/left_hand_path_tab.html ]
|---------------------------------------------------------------------------|
|--------------------------------------------------------p-------p----------|
|---------9------9\8---8\7-----------------------9------9-8-----8-7--p------|
|---9--10---10-9-----9-----9-8---7----------9-10---10-9-----9-8-----8-7-----|
|7-----------------------------9---8------7-----------------------------8-7-|
|---------------------------------------------------------------------------|

3rd and 4th solos(start at 2:47)
   f  dive w/ wham. bar                            p  p
|17^\\-----------------------------------H--H----19-17-15---p--p-------f----|
|-----\\-----------------------H--H----15-17-18-----------18-17-15--18^-----|
|-------\\-------------------14-16-17---------------------------------------|
|---------\\-----hand slide-------------------------------------------------|
|---------------///13\\\\\--------------------------------------------------|
|---------------------------------------------------------------------------|
                                 p  p                 whammy warble
|-----------------f-15--f-15---20-18-17---p--p--p---17\---------------------|
|-----17--15-17 17^----17^--------------20-18-17-0-----\/\------------------|
|//19-----------------------------------------------------\/----------------|
|-----------------------------------------------------------/\--------------|
|-------------------------------------------------------------\/------------|
|---------------------------------------------------------------\/\/\/------|

4ths Solo starts here
               (again,sloppy fast picking)
|///19--///19----15-15-15-19-19-19-17-17-17-15-15-15-12-12-12-17-12-12-12-15-12|
|------------------------------------------------------------------------------|
|------------------------------------------------------------------------------|
|------------------------------------------------------------------------------|
|------------------------------------------------------------------------------|
|------------------------------------------------------------------------------|

|12-12-15-12-12-12-17-12-12-12-15-12-12-12-17-12-12-12-15-12-12-12----12---f---|
|------------------------------------------------------------------15----15^---|
|------------------------------------------------------------------------------|
|------------------------------------------------------------------------------|
|------------------------------------------------------------------------------|
|------------------------------------------------------------------------------|
                                                       
|--f-------------------------------------------------------p--p----------------|
|15^--12-15-12-12-12-17-12-12-12-15-12-12-12-17-12-12-12-17-15-12---p--p----f--|
|-----------------------------------------------------------------16-14-12-14^-|
|------------------------------------------------------------------------------|
|------------------------------------------------------------------------------|
|------------------------------------------------------------------------------|
                                                      trm.pick        f
|--------------------------------------------------17-15-19-15-x4----19^---|
|--f--f----------------------------------17-15-----------------------------|
|14^-14^-----------------------H---16-14-----------------------------------|
|-------------------H---14~~~14-16-----------------------------------------|
|-----------dive--12-14----------------------------------------------------|
|--------12-\--------------------------------------------------------------|
             \
              \

The End!!!!!!

"imfucking tired of this shit, im through! Fuck off!" Necrobutcher-Mayhems DVD
Comments