Entity Paradigm - Hamesha Chords & Tabs

 

Hamesha Chords & Tabs

Entity Paradigm Chords & Tabs

Version: 3 Type: Tab 0 ratings
1 star 2 stars 3 stars 4 stars 5 stars
comments

Hamesha Tab

song: Hamesha (intro)
Band: Ep
Tabbed by: Hamood ur rehman
Hi guys!whats up? this is hamood. well this is my third best ;) tabbing
to ultimate-guitar.COM. the first one was'humain itna pyar'by jal and 2nd jalpari
by atif aslam.
hope youll try them out too.
this intro of hamesha is tabbed on the correct pattern. It took me approx. 6days to
identify the right sound believe me.any way. The tabbing goes like this.
 tunning:-drop D
e/--x--x--------------------/
B/--x--x--------------------/
G/--x--x--------------------/  (intro)
D/--2--2----x--x---x--------/
A/--2--2----x--x---x--------/
D/--2--2----x--x---x--------/  (usually the x i wrote after 2nd fret
brings real cool filling for the drums.justs strike it without pressing the fret.)
[ Tab from: http://www.guitartabs.cc/tabs/e/entity_paradigm/hamesha_tab_ver_3.html ]
e/--x--x--------------------/
B/--x--x--------------------/
G/--x--x--------------------/  (intro)
D/--5--5----x--x---x--------/
A/--5--5----x--x---x--------/
D/--5--5----x--x---x--------/

e/--x--x--------------------/
B/--x--x--------------------/
G/--x--x--------------------/  (intro)
D/--0--0----x--x---x--------/
A/--0--0----x--x---x--------/
D/--0--0----x--x---x--------/

e/--x--x--------------------/
B/--x--x--------------------/
G/--x--x--------------------/  (intro)
D/--10-10-10---12--12-12----/
A/--10-10-10---12--12-12----/
D/--10-10-10---12--12-12----/
__________INTRO 2X___________
Ill submit the pattern afterwards. INSHALLAH.
YOU CAN ALSO SING THE COROUS OF THE SONG ON THIS INTRO ONLY BY CHANGING
THE 0 INTO 7.
ENJOY.!!
ANY MISTAKES , YOU R FREE TO MAIL ME. hamoodrehman708@hotmail.com  ;)
Comments