Enthroned - Evil Church Chords & Tabs

 

Evil Church Chords & Tabs

Enthroned Chords & Tabs

Version: 1 Type: Bass Tab 0 ratings
1 star 2 stars 3 stars 4 stars 5 stars
comments

Evil Church Bass Tab

Bass Tab
Band: Enthroned
Music: Evil Church
Bassist: Lord Sabathan (4 strings devastation & lead voxum)

4/4

Intro
	    4x				            5x
|-------------|---------|-----------------------------|--------|
|*-----------*|---------|*---------------------------*|--------|
|*-----------*|----7----|*--7---2-------3------5-----*|--7--2--|
|------0------|---------|-----------------------------|--------|

Verse 1 (4x)

|--------------------------------------------------------------------|
|*-------------------------------------------------------------------|
|*----------------------------------7-7-7-7-7-7-7-7-7-7-7-7-7-7-7-7--|
|---0-0-0-0-0-0-0-0-0-0-0-0-0-0-0-0----------------------------------|

 ---------------------------------------------------------------------|
 --------------------------------------------------------------------*|
 -5-5-5-5-5-5-5-5-5-5-5-5-7-7-5-5--8-8-8-8-8-8-8-8-8-8-8-8-8-8-8-8---*|
 ---------------------------------------------------------------------|
				   _______________________________
						2x

Verse 2 (2x)

|-------------------------------------------------------------------------|
|*------------------------------------------------------------------------|
|*-----------------------------------8-8-8-8-8-8-8-8-8-8-8-8-8-8-7-7-7-7--|
|----5-5-5-5-5-5-5-5-5-5-5-5-5-5-5-5--------------------------------------|
     _______________________________  ___________________________
		2x				2x

 ------------------------------------------------------------------------|
 ------------------------------------------------------------------------|
 --5-5-5-5-5-5-5-5-5-5-5-5-5-5-7-7-7-7-8-8-8-8-8-8-8-8-8-8-8-8-8-8-8-8---|
 ------------------------------------------------------------------------|
  ___________________________
	      2x

 -----------------------------------------------------|
 ----------------------------------------------------*|
 --10-10-10-10-10-10-10-10-10-10-10-10-10-10-10-10---*|
 -----------------------------------------------------|

Slow Part
					  3x
|-----|---------|--------|--------|---------|--------|--------|--------|
|-----|*--------|--------|--------|--------*|--------|--------|--------|
|--2--|*--2-----|-----4--|--4-----|-----2--*|--2-----|-----4--|--4-----|
|-----|------2--|--2-----|-----4--|--4------|-----2--|--2-----|-----4--|

Verse 3 (2x)
[ Tab from: http://www.guitartabs.cc/tabs/e/enthroned/evil_church_btab.html ]
|----------------------------------------------------------------------------|
|*---------------------------------------------------------------------------|
|*--7-7-7-7-7-7-5-5-7-7-7-7-8-8-8-8-7-7-7-7-5-5-5-5-3-3-3-3-3-3-2-2-3-3-3-3--|
|----------------------------------------------------------------------------|

 --------------------------------------------------------------------|
 --------------------------------------------------------------------|
 --5-5-5-5-3-3-3-3-2-2-2-2--7-7-7-7-7-7-5-5-7-7-7-7-8-8-8-8-7-7-7-7--|
 --------------------------------------------------------------------|

 ------------------------------------------------------|
 ------------------------------------------------------|
 --5-5-5-5-5-5-5-5-5-5-3-3-3-3-3-3-3-3-2-2-2-2-2-2-2-2-|
 ------------------------------------------------------|
   ___________________
            2x

 ---------------------------------------------------------------------------|
 ---------------------------------------------------------------------------|
 --7-7-7-7-7-7-5-5-7-7-7-7-8-8-8-8-7-7-7-7-5-5-5-5-3-3-3-3-3-3-2-2-3-3-3-3--|
 ---------------------------------------------------------------------------|

 --------------------------------------------------------------------|
 --------------------------------------------------------------------|
 --5-5-5-5-3-3-3-3-2-2-2-2--7-7-7-7-7-7-5-5-7-7-7-7-8-8-8-8-7-7-7-7--|
 --------------------------------------------------------------------|

 ---------7-7-7-7-7-7-7-7-7-7-7-7-7-7-7-7-5-5-5-5-5-5-5-5-4-4-4-4-4-4-4-4---|
 --------------------------------------------------------------------------*|
 -5-5-5-5------------------------------------------------------------------*|
 ---------------------------------------------------------------------------|

Verse 2 (4x)

Verse 4 (4x)

|--------------------------------------------------------------------|
|*-------------------------------------------------------------------|
|*----------------------------------3-3-3-3-3-3-3-3-3-3-3-3-3-3-3-3--|
|---0-0-0-0-0-0-0-0-0-0-0-0-0-0-0-0----------------------------------|
    _______________________________ ________________________________
		2x				2x

 -------------------------------------------------------------------|
 -------------------------------------------------------------------|
 --0-0-0-0-0-0-0-0-0-0-0-0-0-0-0-0-2-2-2-2-2-2-2-2-2-2-2-2-2-2-2-2--|
 -------------------------------------------------------------------|
   _______________________________
		2x

 ------------------------------------|
 -----------------------------------*|
 -----------------------------------*|
 --3-3-3-3-3-3-3-3-2-2-2-2-2-2-2-2---|

Verse 1 (5x)

End

|-------|
|-------|
|--2----|
|--0----|
Comments