Enthroned - As The Wolves Howl Again Chords & Tabs

 

As The Wolves Howl Again Chords & Tabs

Enthroned Chords & Tabs

Version: 1 Type: Tab 0 ratings
1 star 2 stars 3 stars 4 stars 5 stars
comments

As The Wolves Howl Again Tab

   
                         
                          ENTHRONED-AS THE WOLVES HOWL AGAIN
                          From the Album PROPHECIES OF PAGAN FIRE
                          Copyright 1995 Evil Omen (Osmose Productions)
                          
                          Version 1.0 - October 1998


Transcribed by: Zack Demianczyk(Malignant)
 email Zack at dio@nauticom.net, for questions or corrections

Visit my homepage at http://www.angelfire.com/ak2/MalignantTabs/index.html
(Malignant Tablature Dominion)


/     slide up
\     slide down
p     pull on
h     hammer on
~     vibrato
pm    .



Tuning: (E,A,D,G,B,E)

 play 8 times                                    1._____  2.______
|-----------------------------------------------|--------|---------|
|-----------------------------------------------|--------|---------|
|-----------------------------------------------|--------|---------|
|-------4-5-4-0---------4-5-7-5---------4-5-4-0-|--------|-----4---|
|----7---------------7---------------7----------|-7----5-|-5-----5-|
|-0---------------0---------------0-------------|--------|---------|


 play 6 times
|---------------------------------------------------|
|---------------------------------------------------|
|----4-5-4------------------------------------------|
|----------7-5-4----4-5-4------5-6-5----------------|
|-7----------------------------------------7-8-7----|
|-----------------7--------7-8--------7-5---------5-|


 play 12 times
|---------------------------|
|---------------------------|
|-4444442222444555555444222-|
|-2222222222222222222222222-|
|---------------------------|


 play 2 times
|-----------------------------------------------------------|
|-----------------------------------------------------------|
|-----4444--------555666555--------4444---------------------|
|-2222----22223333---------33332222----22221111113334443311-|
|-----------------------------------------------------------|
|-----------------------------------------------------------|


 play 2 times
|---------------------------------------------------------------------|
|---------------------------------------------------------------------|
|-----9999-----------------------------------9999---------------------|
|-7777----77778888810101011111110101088887777----77776666668889998866-|
|---------------------------------------------------------------------|
|---------------------------------------------------------------------|


 play 8 times
|---------------------------|
|---------------------------|
|-4444442222444555555444222-|
|-2222222222222222222222222-|
|---------------------------|

 play 4 times
|-------------------------------------------------------------------|
|-------------------------------------------------------------------|
|-----4445--------------4445777777-----4445--------------4445777754-|
|----------777-5-4--------------------------777-5-4-----------------|
|-777---------------777------------777---------------777------------|
|-------------------------------------------------------------------|

|---|
|---|
|-9-|
|-9-|
|-7-|
|---|

 play 2 times (Cool Ass Clean Part)
|--------------------------------------------------------|
|-------------------------------------0------------0-----|
|-------0-------------0-------------0---0--------0---0---|
|-----9---9---------9---9---------9-------9----9-------9-|
|---7-------7----10-------10-----------------7-----------|
|-0------------8---------------10------------------------|

 play 2 times
|-----------------------------------------------------|
|-----------------------------------------------------|
|-------0-------------0------------0------------0-----|
|-----0---0---------0---0--------0---0--------0---0---|
|---9------------10------------7------------9-------9-|
|-7----------7-8-----------8-5----------5-7-----------|


 play 2 times 
|--------------------------------------------------------|
|-------------------------------------0------------0-----|
|-------0-------------0-------------0---0--------0---0---|
|-----9---9---------9---9---------9-------9----9-------9-|
|---7-------7----10-------10-----------------7-----------|
|-0------------8---------------10------------------------|

 play 2 times
|-----------------------------------------------------|
|-----------------------------------------------------|
|-------0-------------0------------0------------0-----|
|-----0---0---------0---0--------0---0--------0---0---|
|---9------------10------------7------------9-------9-|
|-7----------7-8-----------8-5----------5-7-----------|



 play 2 times
|-----------------------------------------|
|-----------------------------------------|
|-----------------------------------------|
|-9--9-10-9-7-----------------------------|
|-7------------10---10-7---9-10-9---------|
|-0-------------8----8-5---7--8-7---7-8-7-|


[ Tab from: http://www.guitartabs.cc/tabs/e/enthroned/as_the_wolves_howl_again_tab.html ]
 play 1 time
|--------------------------------------------|
|--------------------------------------------|
|--------------------------------------------|
|-9--9-10-9-7--------------------------------|
|-7------------10---10-7----9-10-9-----------|
|-0-------------8----8-5----7--8-7-----7-8-7-|
|                                            |
|--------------------------------------------|
|--------------------------------------------|
|--------------------------------------------|
|--------------10-9-7--9-10-9-7-9--10-9-7----|
|-7--10-7-10------------------------------10-|
|--------------------------------------------|



 play 1 time
|--------------------------------------------|
|--------------------------------------------|
|--------------------------------------------|
|-9--9-10-9-7--------------------------------|
|-7------------10---10-7----9-10-9-----------|
|-0-------------8----8-5----7--8-7-----7-8-7-|
|                                            |
|--------------------------------------------|
|--------------------------------------------|
|--------------------------------------------|
|--------------10-9-7--9-10-9-7-9------------|
|-7--10-7-10---------------------------------|
|--------------------------------------------|


 play 1 time
|--------------------------------------------|
|--------------------------------------------|
|--------------------------------------------|
|-9--9-10-9-7--------------------------------|
|-7------------10---10-7----9-10-9-----------|
|-0-------------8----8-5----7--8-7-----7-8-7-|
|                                            |
|-12----12-13-12-10----8--8-5--7-8-7----787--|
|--------------------------------------------|
|--------------------------------------------|
|--------------------------------------------|
|--------------------------------------------|
|--------------------------------------------|


 play 1 time
|--------------------------------------------|
|--------------------------------------------|
|--------------------------------------------|
|-9--9-10-9-7--------------------------------|
|-7------------10---10-7----9-10-9-----------|
|-0-------------8----8-5----7--8-7-----7-8-7-|
|                                            |
|-12----12-13-12-10----8--8-5--7-8-7---------|
|--------------------------------------------|
|--------------------------------------------|
|--------------------------------------------|
|--------------------------------------------|
|--------------------------------------------|

play 8 times
|---------------------------|
|---------------------------|
|-4444442222444555555444222-|
|-2222222222222222222222222-|
|---------------------------|


 play 2 times
|-----------------------------------------------------------|
|-----------------------------------------------------------|
|-----4444--------555666555--------4444---------------------|
|-2222----22223333---------33332222----22221111113334443311-|
|-----------------------------------------------------------|
|-----------------------------------------------------------|


 play 2 times
|---------------------------------------------------------------------|
|---------------------------------------------------------------------|
|-----9999-----------------------------------9999---------------------|
|-7777----77778888810101011111110101088887777----77776666668889998866-|
|---------------------------------------------------------------------|
|---------------------------------------------------------------------|

 play 7 times
|---------------------------|
|---------------------------|
|-4444442222444555555444222-|
|-2222222222222222222222222-|
|---------------------------|

 play 4 times
|-------------------------------------------------------------------|
|-------------------------------------------------------------------|
|-----4445--------------4445777777-----4445--------------4445777754-|
|----------777-5-4--------------------------777-5-4-----------------|
|-777---------------777------------777---------------777------------|
|-------------------------------------------------------------------|


 play 6 times
|-------------------------------------------------------|
|-------------------------------------------------------|
|-------------------------------------------------------|
|-------------------------------------------------------|
|-7-7-7--77--7-8-7-5---------7-5-5-5--55--5-6-5-3-------|
|-5------------------8-7-5---5-3------------------6-5-3-|

|---|
|---|
|---|
|-7-|
|-7-|
|-5-|


 play 1 time
|------------------------------|
|------------------------------|
|------------------------------|
|----2-3-2------2-5------5-3-2-|
|-0---------0-3------3-2-------|
|------------------------------|


 play 12 times
|----------------------------|
|----------------------------|
|----------------------------|
|----2-3-2----2-5------5-3-2-|
|-0---------3------3-2-------|

ending chord
|---|
|---|
|-2-|
|-2-|
|-0-|
|---|

This tab is not permitted or any others off my page to by posted anywhere without
asking me in head of time. For all the time it takes me to do some of these tabs please
ask me first, I would appreciate it, Zack Demianczyk (dio@nauticom.net)
Comments