Enslaved - Lifandi Liv Undir Hamri Chords & Tabs

 

Lifandi Liv Undir Hamri Chords & Tabs

Enslaved Chords & Tabs

Version: 1 Type: Tab 0 ratings
1 star 2 stars 3 stars 4 stars 5 stars
comments

Lifandi Liv Undir Hamri Tab

Enslaved - Lifandi Liv Undir Hamri (or Living Beneath the Hammer)

Transcribed by Fredrik Karlsson (Battlescar_psy@hotmail.com)

Riff 1 (Played over synth-intro)
e[------------------------------------------------------------------]
b[------------------------------------------------------------------]
g[------------------------------------------------------------------]
d[-4-4-4-5----------------------------------------------------------]
a[-4-4-4-5----------------------------------------------------------]
E[-2-2-2-3----------------------------------------------------------]

Riff 2
e[-----------------|------------------------------------------------]
b[---------2-3-2---|---------1--------------------------------------]
g[-------2-------4-|-------1----------------------------------------]
d[-----4-----------|-----3-----3-4----------------------------------]
a[---4-------------|---3--------------------------------------------]
E[-2---------------|-1----------------------------------------------]
[ Tab from: http://www.guitartabs.cc/tabs/e/enslaved/lifandi_liv_undir_hamri_tab.html ]
Riff 3
e[------------------------------------------------------------------]
b[------------------------------------------------------------------]
g[------------------------------------------------------------------]
d[-4-6-7-6----------------------------------------------------------]
a[-4-6-7-6----------------------------------------------------------]
E[-2-4-5-4----------------------------------------------------------]

Riff 4
e[------------------------------------------------------------------]
b[------------------------------------------------------------------]
g[------------------------------------------------------------------]
d[-----------8-8-8-8-8----------------------------------------------]
a[-2-2-2-2-2-6-6-6-6-6-2-2-2-2-2-7-7-7-------2----------------------]
E[-0-0-0-0-0-----------0-0-0-0-0-5-5-5-3b-2b-0----------------------]

Riff 5 (Played on bass. Repeat 4 times)
e[-------------------------|----------------------------------------]
b[-------------------------|----------------------------------------]
g[-------------------------|----------------------------------------]
d[-------------------------|----------------------------------------]
a[-------------------------|----------------------------------------]
E[-2-2-2-2-2-2-1-1-1-1-1-1-|----------------------------------------]

Riff 6
e[------------------------------------------------------------------]
b[------------------------------------------------------------------]
g[------------------------------------------------------------------]
d[-4-3--------------------------------------------------------------]
a[-4-3--------------------------------------------------------------]
E[-2-1--------------------------------------------------------------]
Comments