Enrique Iglesias - Hero Chords & Tabs

 

Hero Chords & Tabs

Enrique Iglesias Chords & Tabs

Version: 6 Type: Tab 0 ratings
1 star 2 stars 3 stars 4 stars 5 stars
comments

Hero Tab

   
Author/Artist: Enrique Iglesias
Title: Hero
Transcribed by: Kedlop
Email: kedlop@gmx.net

~ - Let it sound
/ - Slide up
\ - Slide down

Standard tuning



Intro:
|---3-------3-------3-------3-------3-------3-------3--------------------------
|-----3-------3-------3-------3-------3-------3-------3------------------------
|-------0-------0-------0-------0-------0-------0-------2----------------------
|--------------------------------------------------0---------------------------
|---------------------------------3-------3------------------------------------
|-3-------3-------0-------0----------------------------------------------------
 
Verse 1:                                                                     
|---3-------3-------3-------3-------3-------3-------3-------3------------------
|-----3-------3-------3-------3-------3-------3-------3-------3----------------
|-------0-------0-------0-------0-------0-------0-------2-------2--------------
|-------------------------------------------------0-------0--------------------
|---------------------------------3-------3------------------------------------
|-3-------3-------0-------0----------------------------------------------------
                                                                              

|---3-------3-------3-------3-------3-------3-------3-------3------------------
|-----3-------3-------3-------3-------3-------3-------3-------3----------------
|-------0-------0-------0-------0-------0-------2-------0-------0--------------
|-----------------------------------------0------------------------------------
|---------------------------------3--------------------------------------------
|-3-------3-------0-------0-----------------------3-------3--------------------
 X2                                                                             

Chorus:

G      D              C      G       D              C      
I can be your Hero Baby..... I can kiss away the pain......

G          D              C    G         D               C
I will stand by you forever....You can take...my breath away...

Verse 2:
|---3-------3-------3-------3-------3-------3-------3-------3------------------
|-----3-------3-------3-------3-------3-------3-------3-------3----------------
|-------0-------0-------0-------0-------0-------0-------2-------2--------------
|-------------------------------------------------0-------0--------------------
|---------------------------------3-------3------------------------------------
|-3-------3-------0-------0----------------------------------------------------
                                                                              
[ Tab from: http://www.guitartabs.cc/tabs/e/enrique_iglesias/hero_tab_ver_6.html ]
|---3-------3-------3-------3-------3-------3-------3-------3------------------
|-----3-------3-------3-------3-------3-------3-------3-------3----------------
|-------0-------0-------0-------0-------0-------2-------0----------------------
|-----------------------------------------0------------------------------------
|---------------------------------3--------------------------------------------
|-3-------3-------0-------0-----------------------3-------3--------------------
   
Chorus:
                                                                           
G      D              C      G       D              C      
I can be your Hero Baby..... I can kiss away the pain......

G          D              C    G         D               C
I will stand by you forever....You can take...my breath away...

Solo:
e|-----------------------------------------------------------------------------------
B|-----------------------------------------------------------------------------------
G|--0-0-0-2-4-/7-7-7-11-7----11-12-11-7-4-2-2-~4-2-0---------------------------------
D|-----------------------------------------------------------------------------------
A|-----------------------------------------------------------------------------------
E|-----------------------------------------------------------------------------------

Verse 3:

|---3-------3-------3-------3-------3-------3-------3-------3------------------
|-----3-------3-------3-------3-------3-------3-------3-------3----------------
|-------0-------0-------0-------0-------0-------0-------2-------2--------------
|-------------------------------------------------0-------0--------------------
|---------------------------------3-------3------------------------------------
|-3-------3-------0-------0----------------------------------------------------
                                                                              

|---3-------3-------3-------3-------3-------3-------3-------3------------------
|-----3-------3-------3-------3-------3-------3-------3-------3----------------
|-------0-------0-------0-------0-------0-------2-------0----------------------
|-----------------------------------------0------------------------------------
|---------------------------------3--------------------------------------------
|-3-------3-------0-------0-----------------------3-------3--------------------

Chorus:
Repeat til song fades out.....                                                                           
G      D              C      G       D              C      
I can be your Hero Baby..... I can kiss away the pain......

G          D              C    G         D               C
I will stand by you forever....You can take...my breath away...
Comments