Enrique Iglesias - Hero Chords & Tabs

 

Hero Chords & Tabs

Enrique Iglesias Chords & Tabs

Version: 3 Type: Tab 0 ratings
1 star 2 stars 3 stars 4 stars 5 stars
comments

Hero Tab

#-----------------------------------------------------------------------------#
#-- File created with Instab - http://www.pconline.com/~smcarey/instab.html --#
#-----------------------------------------------------------------------------#

Author/Artist: Enrique Iglesias
Title: Hero
Album: His new one, I think the title is Escape
Transcribed by: Austin Szu
Email: kungfuszu@hotmail.com

I do not really know how to write tabs, but if you 
follow along what I have transcribed and listen to 
the song, you can figure it out.  The chorus goes "G" 
to a "D" then a "C".  The verse after the first chorus is 
more or less the same as the beginning.  I got the solo 
(short version) figured out pretty well.  Enjoy!

-|---3------3------3-----3------3-------3-------3-----------3------3----------
-|-----3------3------3-----3------3-------3-------3-----------3------3--------
-|-------0------0------0-----0------0-------0-------0-----------0------0------
-|-------------------------------------------0--------------------------------
-|----------------------------3-----------------------------------------------
-|-3------3------0----------------------------------------3------3------0-----
  Intro                                             rest  "Would you...       

-|3------3------3-----3------3-----3-------3-------3------3------3------------
-|--3------3------3-----3------3-----3-------3-------3------3------3----------
-|----0------0------0-----0------0-----0-------0-------0------0------0--------
-|---------------------------------------0-------0----------------------------
-|------------3------------3--------------------------------------------------
-|-----0------------------------------------------------3------3------0-------
                                                                              
[ Tab from: http://www.guitartabs.cc/tabs/e/enrique_iglesias/hero_tab_ver_3.html ]
-|3------3------3-------3------3------3------3-----3------3-----3-------------
-|--3------3------3-------3------3------3------3-----3------3-----3-----------
-|----0------0------0-------0------0------0------0-----0------0-----0---------
-|-------------------0--------------------------------------------------------
-|------------3------------------------------------------------------3--------
-|-----0---------------------3------3------3------------0---------------------
                                                                              

-|3-----3------3-----3------3-----3------3-----3------3-----3------3----------
-|--3-----3------3-----3------3-----3------3-----3------3-----3------3--------
-|----0-----0------0-----0------0-----0------0-----0------0-----0------0------
-|-----------0----------------------------------------------------------------
-|--------------------------------------------------3-------------------------
-|------------------------3------------0-------------------------3------------
                                                                              

-|------------------3---------------------------------------------------------
-|--------------------3-------------------------------------------------------
-|----------------------0-----------------------------------------------------
-|----------------------------------------------------------------------------
-|----------------------------------------------------------------------------
-|----------------3------3----------------------------------------------------
   Chorus.....    "Would you swear.....                                       

-|----------------------------------------------------------------------------
-|----------------7---787-----------------------------------------------------
-|-00----------77---7----7---------07-----------------------------------------
-|----7-99v--9-------------9-7v--97-------------------------------------------
-|----------------------------------------------------------------------------
-|----------------------------------------------------------------------------
 Here is a shot at the solo (just listen to it and figure out the intervals)  

------------------------------------------------------------------------------
------------------------------------------------------------------------------
------------------------------------------------------------------------------
------------------------------------------------------------------------------
------------------------------------------------------------------------------
------------------------------------------------------------------------------
                                                                              

Comments