Enrique Iglesias - Escape Chords & Tabs

 

Escape Chords & Tabs

Enrique Iglesias Chords & Tabs

Version: 1 Type: Tab 0 ratings
1 star 2 stars 3 stars 4 stars 5 stars
comments

Escape Tab

INTRO
intro

e---------------------------------
B---------------------------------
G-----4---4---4-------4---4---3---
D---4---4---2---2---------------4-
A-2-----------------6---6---------
E-----------------4---------2-----

[ Tab from: http://www.guitartabs.cc/tabs/e/enrique_iglesias/escape_tab.html ]
chords
e-------------------------------------
B-------------------------------------
G-4---4---------4-------4---------3---
D---4---4-2-2-2---2-6---------------4-
A-2-------------------6---6-----------
E-------------------4-------2-2-2-----
Comments