Enrique Iglesias - Be With You Chords & Tabs

 

Be With You Chords & Tabs

Enrique Iglesias Chords & Tabs

Version: 1 Type: Tab 0 ratings
1 star 2 stars 3 stars 4 stars 5 stars
comments

Be With You Tab

   
name: Taimur Siddiqi

artist: Enrique Iglesias

SongTitle: Be With You

Tabs: Be With You-Enrique Iglesias

Tabbed By Taimur S.

TUNING: 1 STEP UP

E=F#
B=C#
G=A
D=E
A=B
E=F#

Hey, this is one of my first tabs and i hope u guys appreciate it. The 
song is basically tuned up 1 step and sounds great on a nice nylon 
string guitar. I've added lyrics to help u out and any bits that aren't 
here, are probably inaudible or repeats of previous bits. U gotta be good 
enough to hear for those. Anyways, good luck with playin it n all and 
send me a line if u want any help with this song or any other.


Intro:

E---5--3-2H3P2-0-----------------3/5-5-5/7-0----------------
B----------------5P3-5-5/7-7-----------------3P2P0----3H5P3-
G-2---------------------------2-----------------------------
D-----------------------------------------------------------

Chord: Bm

Verse 1 Fill:

E----------------------5------------------------5-
B---------------------3---------------------3P2---
G-----------------4-2-----------------------------
 (SAVE MY SOUL...)        (TO THE WORLD BELOW...)

Verse Chords:

D, A, G, Bm
D, A, G, Bm
Em, Em, A

Chorus Chords:
[ Tab from: http://www.guitartabs.cc/tabs/e/enrique_iglesias/be_with_you_tab.html ]
G, A, Bm, A
G, A, Bm, A
Em

Verse 2 Solo:

E--------------------------------------
B-5/7---5-3--3H5-3-----------3-3-3/5-3-
G-----------------4--4P2H4--2----------

Verse 2 Fill:

E--------------------5----------------------------------
B----------------3P2----------------------3-2-5-5/7-5-3-
G---------------------------------------2---------------
 (TRY TO SMILE...)     (SAVE MY LIFE...)

Solo:

E--------5-----------------------------------------
B-2-3-5---3---2-3-2H3P2------------5/7-7-7-5-3-3H5-
G-----------------------4--------------------------
D--------------------------------------------------
			(DON'T LET ME DOWN...)

E----------------3/5-5-5-3-2-2H3-3/7-10--12-12-12-10-9--9-10---
B-----------------------------------------------------------10-
G--------------------------------------------------------------
 (COME TO ME NOW...)

Pre-Chorus 3 Fill:

E--------------------------
B--------------5P3-5-5/7-7-
G--------------------------
 (BE WITH YOU!...)

Ending:

E-----------------------------
B--------------2-3-5-3-2H3P2--
G----------2-4--------------4-
 (Be With U...)

E--------------------------
B-------------2-3-5--3P2-3-
 (BE WITH YOU...)         

E-----------------------------------------------
B--------------------10-10-10-8-8-8-7-7-7-5-3-5-
 (I WANNA BE WITH YOU...)


This one is dedicated to my girlfriend Khushi, I love u babe. :>)


Comments