Enkindels - December By Chance Ver Chords & Tabs

 

December By Chance Ver Chords & Tabs

Enkindels Chords & Tabs

Version: 1 Type: Tab 0 ratings
1 star 2 stars 3 stars 4 stars 5 stars
comments

December By Chance Ver Tab

This is my first tab so if it needs corrections, feel free to email me
mnmsweety88@yahoo.com

[ Tab from: http://www.guitartabs.cc/tabs/e/enkindels/december_by_chance_ver_tab.html ]
E-------------------------------------------------------------------
B-----3------3-------3-------3-------3--------3--------3--------3---
G---2------2-------2-------2-------2--------2--------2--------2-----
D-0------------------------------0----------------------------------
A-------------------------------------------------------------------
E--------2-------3-------3----------------2--------3--------3-------

REPEAT

Power cords...
------X-X----------------------------/-------X-X--------------------------
------X-X----------------------------/-------X-X--------------------------
-7-7--X-X----------------------------/--7-7--X-X--------------------------
-7-7--X-X---4-4-4--4/5--5-5-5-5-5-5--/--7-7--X-X---4-4-4--4/5--5-5-5-5-5-5
-5-5--X-X---4-4-4--4/5--5-5-5-5-5-5--/--5-5--X-X---4-4-4--4/5--5-5-5-5-5-5
------X-X---2-2-2--2/3--3-3-3-3-3-3--/-------X-X---2-2-2--2/3--3-3-3-3-3-3

Repeat
Comments