Enigk Jeremy - Oh John Chords & Tabs

 

Oh John Chords & Tabs

Enigk Jeremy Chords & Tabs

Version: 1 Type: Tab 0 ratings
1 star 2 stars 3 stars 4 stars 5 stars
comments

Oh John Tab

UNRELEASED/RARE SONG BY JEREMY ENIGK
[ Tab from: http://www.guitartabs.cc/tabs/e/enigk_jeremy/oh_john_tab.html ]
e---------------------------------------------------------
b---------------------------------------------------------
g--------0----0-----0----0----0----0-----0----------------
d------0---4------0---4------0--4------0-------0----------
a----3------5---3------5---3-----5----3----3--0--2--3------
e---------------------------------------------------------

e-----------------------------------------------------------
b---------0------0--------------------------------------------
g-------0------0-------0-------0-------0-----0-----------------
d-----9------7-------7-------7-------0----4-------------------
a------------------9------5--------3--------5----------------
e------------------------------------------------------------
Comments