Engine Down - Pantomime Chords & Tabs

 

Pantomime Chords & Tabs

Engine Down Chords & Tabs

Version: 1 Type: Tab 0 ratings
1 star 2 stars 3 stars 4 stars 5 stars
comments

Pantomime Tab

Pantomime -by- Engine Down ... this will be the first engine down tab on the 
least that i know of

Intro and Verses - Both Guitars Distorted

1-------------------------------------------------------------------|
2-------------------------------------------------------------------|
3-xx-9-xx-9-xx-9-xx-9-xx-7-xx-7-xx-7-xx-7-xx-10-xx-10-xx-10-xx-10---|
4-xx-X-xx-X-xx-X-xx-X-xx-X-xx-X-xx-X-xx-X-xx-X--xx-X--xx-X--xx-X----|
5-xx-7-xx-7-xx-7-xx-7-xx-5-xx-5-xx-5-xx-5-xx-8--xx-8--xx-8--xx-8----|
6-------------------------------------------------------------------|

1-----------------------|
2-----------------------|
3-xx-7-xx-7-xx-7-xx-7---|
4-xx-X-xx-X-xx-X-xx-X---| keep repeting till pre chorus
5-xx-5-xx-5-xx-5-xx-5---|
6-----------------------|

Pre Chorus - Guitar 1

1------------------------------------------------------------------------------|
2------------------------------------------------------------------------------|
3------------------------------------------------------------------------------|
4-10-9-7-10-9-14-14--10-9-7-10-7-12-12--10-9-7-10-9-12-12--10-9-7-14-14-14-14--|
5------------------------------------------------------------------------------|
6------------------------------------------------------------------------------|

Guitar 2 -Distortion

1---------------------------|
2---------------------------|
3-9999-7777-10101010-7777---|
4-xxxx-xxxx-x-x-x-x--xxxx---|
5-7777-5555-8-8-8-8--5555---|
6---------------------------|

Chorus Both Guitars

1--------------------|
2--------------------|
3-9--------10--------|
4-9--(x10)-10-(x4)---|  (x2)-listen to the song to strum it correctly
5-7--------8---------|
6--------------------|

Verse Riff Again

Chorus 2 - Just Guitar 1 plays the same chorus as before

Guitar 2 plays this once in the background while Gu1 does the chorus

1----------|
2------12--|
3----------|
4-9-12-----|
5----------|
6----------|

Guitar 2 then comes in with Gu1 and plays the chorus again.
[ Tab from: http://www.guitartabs.cc/tabs/e/engine_down/pantomime_tab.html ]
Next, Guitar 2 Plays the verse again while Guitar 1 has solo.

Guitar 1 solo

1---------------------------------------------------------------------|
2---------------------------------------------------------------------|
3-14-14-12-12-9-9-9-9-9-9-9-9-10-10-10-10-10-10-10-10-9-9-9-9-9-9-7-7-|
4---------------------------------------------------------------------|
5---------------------------------------------------------------------|
6---------------------------------------------------------------------|

1-----------------------------------------|
2-----------------------------------------|
3-----------------------------------------|
4-7-7-7-7-7-9-9-9-9-10-10-10-10-9-9-9-9---|  (x2)
5-----------------------------------------|
6-----------------------------------------|

Bass Solo

Then Guitars Come in with this

1-------------------------------------------------------------------|
2-------------------------------------------------------------------|
3-------------------------------------------------------------------|
4-------------------------------------------------------------------|
5-------------------------------------------------------------------|
6-5-5-5-3-3-3-8-8-0-0-0-0-0-0-8-8-2-2-2-8-8-2-2-2-7-7-7-7-7-7-7-7---|

Keep repeting that until about 3:35 when Gu1 plays this riff while Gu2 is still repeting the above riff.


1------------------------------------|
2------------------------------------|
3---7-5---------------9---7---7------|
4------------7-----7-----------------|
5------------------------------------|
6-5----------------------------------|

Ending -  Both Guitars

1--------------------------------------------------------|
2--------------------------------------------------------|
3--------------------------------------------------------|
4--------------------------------------------------------|
5--------------------------------------------------------|
6-5-5-5-3-3-3-8-8-8-12-12-12-12-12-14-14-14-15-15-15-7---|

last note ring

Thats it...Please rate you engine down fans
Comments