Engerica - Roadkill Chords & Tabs

 

Roadkill Chords & Tabs

Engerica Chords & Tabs

Version: 1 Type: Tab

Roadkill Tab

Roadkill - Engerica

Drop D Tuning

E-------------------------------------------|
B------666----666-----666---------101010----|
G-------------------------------------------| intro/verse part 1
D--5555555555555555555555-----8888888-------|
A--5555555555555555555555-----8888888-------|
D--5555555555555555555555-----8888888-------|


E---------------------------------------------------------------|
B------666----666-----666--------------8------------------------|9<8 (Bend)
G---------------------------------------------------------------|
D--5555555555555555555555-----8888888------- intro/verse part 2-|
A--5555555555555555555555-----8888888---------------------------|
D--5555555555555555555555-----8888888---------------------------|
[ Tab from: http://www.guitartabs.cc/tabs/e/engerica/roadkill_tab.html ]
E-----------------------------------------------|
B--------------------------101010---------------|
G-----------------------------------------------|
D-1111---333-----------888888-------------------| Chorus
A-1111---333--x 3------888888-------------------|
D-1111---333-----------888888-------------------|

E------------------------------------------------|
B------------------------------------------------|
G------------------------------------------------| Pre 3rd verse
D---5--------------555---------------------------|
A---5--------------555---------------------------|
D---5--------------555---------------------------|

E-----------------------------------------------|
B-----------------------------------------------|
G-----------------------------------------------|
D---55555555555555555--333----------------------| Outro End On G
A---55555555555555555--333----------------------|
D---55555555555555555--333----------------------|


Structure
Intro/verse part 1 (clean)
Intro/verse part 2 (clean)
Intro/verse part 1 (distortion)
Intro/verse part 2 (distortion)
Intro/verse part 1 x 2
chorus x 2
intro/verse part 1
intro/verse part 2
(verse 2 is played by the bass)
chorus x2
Pre third verse
intro/verse x 2
chorus x 2
outro