Engenheiros Do Havai - Era Um Garoto Chords & Tabs

 

Era Um Garoto Chords & Tabs

Engenheiros Do Havai Chords & Tabs

Version: 2 Type: Tab 0 ratings
1 star 2 stars 3 stars 4 stars 5 stars
comments

Era Um Garoto Tab

   
intro
B|-7--6---7--6--7--6--7--6---6---4---6---4------4---2---4---2----| (x2)
G|---6--6--6--6--6--6--6--6----4---4---4---4------1---1---1---1--|

 E             B7
  Era um garoto  que como eu
 A                      B7
  Amava os Beatles e os Rolling Stones
 E              B7
  Girava o mundo  sempre a cantar
 A                     B7
  As coisas lindas da América

 E                 B7
  Não era belo mas mesmo assim
    A         B7
  Havia mil garotas afim
 E                    B7
  Cantava "Help" and "Ticket to Ride"
       A               B7
  Oh! "Lady Jane" and "Yesterday"

 E            A
  Cantava viva a liberdade
 B7                 E
  Mas uma carta sem esperar
                 A
  Da sua guitarra o separou
 F#7               B7
  Fora chamado na América

   E    G  A        B
  Stop com Rolling Stones
   E    G   A       B
  Stop com Beatles songs
     A    G#m      F#m  E
  Mandado foi ao Viet...nã
      A  G#   A    A#   B
  Lutar com vie...t...congs

 E                      A
  Tata-tatata, tata-tatata
                        B
  Tata-tatata, tata-tatata
                        E
  Tata-tatata, tata-tatata
           B7
  Tata-tatata

 E             B7
  Era um garoto  que como eu
 A                      B7
  Amava os Beatles e os Rolling Stones
 E              B7
  Girava o mundo  mas acabou
 A                    B7
  Fazendo a guerra do Vietnã

 E                   B7
  Cabelos longos não usa mais
      A             B7
  Nem toca a sua guitarra e sim
 E                   B7
  Um instrumento que sempre dá
     A          B7
  A mesma nota: rata-tata

 E               A
  Não tem amigos, não vê garotas
 B7                E
  Só gente morta caindo ao chão
             A
  Ao seu país não voltará
 F#7                  B7
  Pois está morto no Vietnã
[ Tab from: http://www.guitartabs.cc/tabs/e/engenheiros_do_havai/era_um_garoto_tab_ver_2.html ]
   E    G  A        B
  Stop com Rolling Stones
   E    G   A       B
  Stop com Beatles songs
      A       G#m F#m     E
  No peito um coração não há
       A   G#   A A#     B
  Mas duas me...dalhas, sim

Interlúdio:
e|---7--6-7-8--7-8-7-6~~-|
B|-6---------------------|

 E                      A   |
  Tata-tatata, tata-tatata  |
                        B7  |
  Tata-tatata, tata-tatata  | x2
                        E   |
  Tata-tatata, tata-tatata  |
           B7               |
  Tata-tatata               |
 

Solo:
e|-----------------------------------|----------------------|-------------------------|
B|-----------7-6-4-6----4--2--2-0-2--|----------------------|---------------------7---|
G|-6-3---3-6----------3--------------|--------------------6-|-----------3-2-3-6-4-----|
D|-----4-----------------------------|-----------4-4--6-6---|---4-3-4-3---------------|
A|-----------------------------------|----4-4-4-------------|-------------------------|
E|-----------------------------------|----------------------|-------------------------|

e|---------------------|-----------------------------------------------------|
B|--7-4----------------|-----------------------------------------------------|
G|------6--3-6-3-6-3---|-6-3------6-3-------------------------6-9---6-7-6----|
D|-------------------4-|-----4-4------4-4-4-6-6-6-7-7-7-9-9-9-----9----------|
A|---------------------|-----------------------------------------------------|
E|---------------------|-----------------------------------------------------|

e|-------------------------------------||-------------------------------|
B|------------------7--7---------------||-7-7-8-7-6----7-6--------------|
G|-------5--6-5-6--------8-6-----------||------------8------8-6---------|	2x
D|-8-8-8----------------------10-8-----||-----------------------9-7-6---|
A|---------------------------------11-9||-----------------------------9-|
E|-------------------------------------||-------------------------------|

e|-15-15-17-15-14-12----15---------------------------------|
B|-------------------15----17-17-15-13-12------------------|
G|----------------------------------------14-12------------|	2x
D|---------------------------------------------------------|
A|---------------------------------------------------------|
E|---------------------------------------------------------|

E                      A
  Tata-tatata, tata-tatata
                        B7
  Tata-tatata, tata-tatata
                        E
  Tata-tatata, tata-tatata
           B7
  Tata-tatata

  E                        A                            B7
  Rata-tata-tata, tata-tatata, rata-tata-tata, tata-tatata, rata-tata-tata, rata-
        E              B7
tata-tata, rata-tata-tata
Comments