Enemies - In Decay Chords & Tabs

 

In Decay Chords & Tabs

Enemies Chords & Tabs

Version: 1 Type: Tab 0 ratings
1 star 2 stars 3 stars 4 stars 5 stars
comments

In Decay Tab

   
Enemies
In Decay

Tuning: Eb Ab Db Gb Bb Eb

Intro
|-------------------------------|
|-------------------------------|
|---6-xxxx---4--6---3--xxxx-----|
|---6-xxxx---4--6---3--xxxx-----| (x4)
|---4-xxxx---2--4---1--xxxx-----|
|----------------------xxxx-----|

Verse
|----------------------------|
|----------------------------|
|--6-------4---6----3--------|
|--6-------4---6----3--------| (x4)
|--4-------2---4----1--------|
|----------------------------|

Chorus
|--------------------------------|
|--------------------------------|
|---6------3------4--------------|
|---6------3------4------6-------|
|---4------1------2------6-------|
|------------------------4-------|

Verse 2
|-------------------------------|
|-------------------------------|
|---6-xxxx---4--6---3--xxxx-----|
|---6-xxxx---4--6---3--xxxx-----|
|---4-xxxx---2--4---1--xxxx-----|
|----------------------xxxx-----|
[ Tab from: http://www.guitartabs.cc/tabs/e/enemies/in_decay_tab.html ]
Interlude (in p.m.)
|----------------------------|
|----------------------------|
|--6-------4---6----3--------|
|--6-------4---6----3--------| Couple Times
|--4-------2---4----1--------|
|----------------------------|

|-----------------------------------|
|-----------------------------------|
|---6--------9-8-9-8-------9--------|
|---6--------9-8-9-8-------9--------| many times
|---4--------7-6-7-6-------7--------|
|-----------------------------------|

|--------------------------------------|
|--------------------------------------|
|---6---------------------66666666-----|
|---6--(bass playing)-----66666666-----|
|---4---------------------44444444-----|
|--------------------------------------|

Outro
|-----------------------------------|
|-----------------------------------|
|---6--------9-8-9-8-------9--------|
|---6--------9-8-9-8-------9--------|
|---4--------7-6-7-6-------7--------|
|-----------------------------------|

This song is fucking awesome... its all the same shit over and over but with different rythems!

If you don't like it... WELL FUCK IT!!!
Giovanni Caligaris
Comments