Enemies - Down There Chords & Tabs

 

Down There Chords & Tabs

Enemies Chords & Tabs

Version: 1 Type: Tab 0 ratings
1 star 2 stars 3 stars 4 stars 5 stars
comments

Down There Tab

Enemies
Down There

Intro
|--------------------------------------------------------|
|--------------------------------------------------------|
|---5--------------7---------------------------5---------|
|---5------5-------7-------7---8-----5---7-----5---5-----|
|---3------5-------5-------7---8-----5---7-----3---5-----|
|----------3---------------5---6-----3---5---------3-----|

Verse/Chorus
|---------------------------|
|---------------------------|
|---3-----------5-----------| (x2)
|---3----3------5-----5-----|
|---1----3------3-----5-----|
|--------1------------3-----|

|----------------------------|
|----------------------------|
|---3-3-3---5-5-5---7-7-7----|
|---x-x-x---x-x-x---x-x-x----|
|---1-1-1---3-3-3---5-5-5----|
|----------------------------|

|--------------------------|
|--------------------------|
|---3-----------5----------| 
|---3----3------5----------|
|---1----3------3----------|
|--------1-----------------|

|-------------------------------------------------------------|
|-------------------------------------------------------------|
|-----------------5------3--------------------5------3---5----|
|---5------3------5------3-------5------3-----5------3---5----|
|---5------3------3------1-------5------3-----3------1---3----|
|---3------1---------------------3------1---------------------|

Intro again

Verse/Chorus again 
[ Tab from: http://www.guitartabs.cc/tabs/e/enemies/down_there_tab.html ]
Bridge (x2)
|----------------------------------------------------------------------------------------|
|----------------------------------------------------------------------------------------|
|----3-xxxxx----5-xxxx-----7---3-xxxxx---5-xxxx---7---3---xxxx-----------5-xxx-----------|
|----3-xxxxx----5-xxxx-----7---3-xxxxx---5-xxxx---7---3---xxxx---3-xxx---5-xxx---5-xxx---|
|----1-xxxxx----3-xxxx-----5---1-xxxxx---3-xxxx---5---1---xxxx---3-xxx---3-xxx---5-xxx---|
|---------------------------------------------------------xxxx---1-xxx-----------3-xxx---|

|----------------------|
|----------------------|
|---3------------------| (x2)
|---3-----3------5-----|
|---1-----3------5-----|
|---------1------3-----|

Chorus
|---------------------------|
|---------------------------|
|---3-----------5-----------| (x2)
|---3----3------5-----5-----|
|---1----3------3-----5-----|
|--------1------------3-----|

|----------------------------|
|----------------------------|
|---3-3-3---5-5-5---7-7-7----|
|---x-x-x---x-x-x---x-x-x----|
|---1-1-1---3-3-3---5-5-5----|
|----------------------------|

|---------------------------|
|---------------------------|
|---3-----------5-----------| (x4)
|---3----3------5-----5-----|
|---1----3------3-----5-----|
|--------1------------3-----|

|----------------------------|
|----------------------------|
|---3-3-3---5-5-5---7-7-7----|
|---x-x-x---x-x-x---x-x-x----|
|---1-1-1---3-3-3---5-5-5----|
|----------------------------|

|--------------------------|
|--------------------------|
|---3-----------5----------| 
|---3----3------5----------|
|---1----3------3----------|
|--------1-----------------|

Outro
|-----------------------------------------|
|-----------------------------------------|
|-----------------5------3----5------11---|
|---5------3------5------3----5------11---|
|---5------3------3------1----3------9----|
|---3------1------------------------------|

This song is fucking awesome, its easy/fast to play, the first time to play it is kind of
confusing, The Enemies is the greates band ever!!!!

If you don't like it.... WELL FUCK IT

Giovanni Caligaris
Comments