Endo - Simple Lies Chords & Tabs

 

Simple Lies Chords & Tabs

Endo Chords & Tabs

Version: 1 Type: Bass Tab 0 ratings
1 star 2 stars 3 stars 4 stars 5 stars
comments

Simple Lies Bass Tab

   
ok guys. I've listen to this song at least fifty times in a row today.
I also have a five sting bass so yea. Impravise.

the key:
/=slide up.    \=slide down    *=slaps    >=let it ring    ()=repeat

Directions: Play from "A" to the end of "E". Go back to "B" and play to "F".
Repeat back to "D" and play to the end.


Letter "A"
the guitar starts... then come in with the drums
-------------------3*---3*--------3*---3*------3/10\3-3-3-3-- 
-------------------------------------------------------------
-----------------5*---55*------5*----55*-----------------5---
-------------------------------------------------------------
-------------------------------------------------------------

Letter "B"
3-3-3-----------------3/10\3-3-3-3--3-3-3-----------------3-3-3
---------------------------------------------------------------
---5---1-11-1--0-00-0-----------5------5---1-11-1--3-33-0>-----
---------------------------------------------------------------
---------------------------------------------------------------
[ Tab from: http://www.guitartabs.cc/tabs/e/endo/simple_lies_btab.html ]
Letter "C"
---3-3-3-----------------3/10\3-3-3-3--3-3-3-------------------
---------------------------------------------------------------
5-----5---1-11-1--0-00-0-----------5------5---1-11-1--3-33-0>>>
---------------------------------------------------------------
---------------------------------------------------------------

Letter "D"
----------------------------------------------------------------
----------------------------------------------------------------
>>--------------------------------------------------------------
--(7-7-7-7-7-7-7-7-7-7-7-7-5-5-5-5-5-5-5-5-5-5-5-5-3/5-5-5-5-5-5
--(7-7-7-7-7-7-7-7-7-7-7-7-5-5-5-5-5-5-5-5-5-5-5-5-3/5-5-5-5-5-5

Letter "E"
--------------------------------------
--------------------------------------
--------------------------------------
-5-5-5-5-5-5-3-3-3-3-3-3-0-0-0-0-0-0-)
-5-5-5-5-5-5-3-3-3-3-3-3-0-0-0-0-0-0-)

Letter "F"
------------------------1-1-1---3---1-1-1---3---1-1-1---3---1-1-1
------------------------------1---1-------1---1-------1---1------
-----------------------------------------------------------------
-----------------------------------------------------------------
-----------------------------------------------------------------

Letter "G"
---3---1-1-1
-1---1------
------------
------------
------------
                                  THE ENDO

   By: matt...mr boolteg
Comments