End Of Fashion - Seize The Day Chords & Tabs

 

Seize The Day Chords & Tabs

End Of Fashion Chords & Tabs

Version: 1 Type: Tab 1 rating
1 star 2 stars 3 stars 4 stars 5 stars
comments

Seize The Day Tab

-----------------------------------------------------------------
                  SEIZE THE DAY - End of Fashion
-----------------------------------------------------------------

Tabbed by: Xiang
Email: Xiang_k@hotmail.com

Tuning: Standard (hooray)

Notes: This tab is for Brooke, and all you EoF fans.
Feel free to contact me about anything at all,
especially comments, feedback or changes.
Listen to the cd for timing etc
Ciao.

*INTRO*

(optional pull on and hammer offs here)        
e|---------------------------------------------------------------|
B|------p-h------------------------------------------------------|
G|--4-4-3-4-----2---------2--------------------------------------|
D|--4-4-4-4-----2----2----2--------------------------------------|
A|--2-2-2-2-----0----2----0--------------------------------------|
E|-------------------0-------------------------------------------|

*VERSE*

  I dont/     |  hanging/    |  head now/  |(2nd time through sing:
wanna see you | falling from | to imagine  |  Why don't you go
e|---------------------------------------------------------------|
B|---------------------------------------------------------------|
G|-----4---------------------------------------------------------| (x2)
D|-----4-------------2-------------6---------------4-------------|
A|-----2-------------2-------------6---------------4-------------|
E|-------------------0-------------4---------------2-------------|

I don't, I don't wanna see you hanging,
Pieces falling from my head now,
It's hard to imagine

I don't, I don't wanna see you hanging,
Pieces falling from my head now,
It's hard to imagine

*CHORUS*
[ Tab from: http://www.guitartabs.cc/tabs/e/end_of_fashion/seize_the_day_tab.html ]
    Away/     | this one/  |  Sang   | Why not, hey
   double     | times you  |         | what do you
e|---------------------------------------------------------------|
B|---------------------------------------------------------------|
G|----4-----------2-------------------------2--------------------|
D|----4-----------2-------------2-----------2--------------------| (x2)
A|----2-----------0-------------2-----------0--------------------|
E|------------------------------0--------------------------------|

Why don't you go away?
Double this one,
For all the times you sang,
Why not,
Hey what do you think?
Silly question,
Soon as I've seized the day

---------------------------

*VERSE x1*

I don't, I don't wanna see you hanging,
Pieces falling from my head now,
It's hard to imagine

*CHORUS*

---------------------------

*BRIDGE*


 Couldnt anybody| (repeat)  |  (repeat)   | Couldnt anybody-
   
ever know    |           |             | Why don't you go
e|---------------------------------------------------------------|
B|---------------------------------------------------------------|
G|-------------------8-------------6-----------------------------|
D|-----2-------------8-------------6-------------4---------------|
A|-----2-------------6-------------4-------------4---------------|
E|-----0-----------------------------------------2---------------|


*CHORUS*

    Away/     | this one/  |  Sang   | Why not, hey
   double     | times you  |         | what do you
e|---------------------------------------------------------------|
B|---------------------------------------------------------------|
G|----4-----------2-------------------------2--------------------|
D|----4-----------2-------------2-----------2--------------------| (x2)
A|----2-----------0-------------2-----------0--------------------|
E|------------------------------0--------------------------------|

Why don't you go away?
Double this one,
For all the times you sang,
Why not,
Hey what do you think?
Silly question,
Soon as I've seized the day

(Repeat till end)

Thought to be forever beyond the reach of conscious control.

Enjoy.
Comments