Empyrium - Sad Song Of The Wind Chords & Tabs

 

Sad Song Of The Wind Chords & Tabs

Empyrium Chords & Tabs

Version: 1 Type: Tab 0 ratings
1 star 2 stars 3 stars 4 stars 5 stars
comments

Sad Song Of The Wind Tab

Artist: Empyrium
Song Name: The Sad Song Of The Wind
Album: Where At Night The Wood Grouse Plays
Tabbed by: Liz
email at lizteoro@yahoo.com

riff 1

E|----------0------3---3-----0--------------------------|
B|---6------5------0---0-----5--------------------------|
G|--7-------5----------------5--------------------------|
D|-0----------------------------------------------------|  x2
A|----------0----------------0--------------------------|        
E|-----------------0------------------------------------|         

riff 2

E|-------------0--------------3--3---0------------------|   
B|---6--5--3---5--3--1--(0)---0--0---5------------------| 
G|--7----------5---------------------5------------------|   
D|-0----------------------------------------------------|  x2
A|-------------0---------------------0------------------|
E|----------------------------0-------------------------|

riff 3
[ Tab from: http://www.guitartabs.cc/tabs/e/empyrium/sad_song_of_the_wind_tab.html ]
E|----8---7--5--3---1--1h0p1--------------0---(0)(0)----|
B|---5---5----------------------3--5-6-5--5-------------|
G|--5---5-------2--------------2----------5-------------|
D|--------------0-------------0-------------------------|  x2
A|-0--------------------------------------0-------------|   
E|------------------------------------------------------|   

riff 4

E|---3---------------0----------------------------------|
B|--5------6-----6---5----------------------------------|
G|--------7-----7----5----------------------------------|
D|-------0-----0----------------------------------------|  x2
A|-0-----------------0----------------------------------|
E|------------------------------------------------------|

riff 5

E|----8--5-7-8-7-5---3---1--1h0p1----------------0---(0)(0)-|
B|---5---5----------------------------3---5-6-5--5----------|
G|--5----5-----------2---------------2-----------5----------|
D|-------------------0--------------0-----------------------|  x2
A|-0---------------------------------------------0----------|
E|----------------------------------------------------------|

riff 6

E|----8---7--5--3--1--1h0p1h0p1---------------0---(0)-5-8-12--|
B|---5---5--------------------------3--5-6-5--5---------------|
G|--5---5-------2------------------2----------5---------------|
D|--------------0-----------------0---------------------------|
A|-0------------------------------------------0---------------|
E|------------------------------------------------------------|

riff 1
riff 2
riff 3
riff 4
riff 5
riff 4
riff 6
riff 4
Comments