Emperor - Wanderer Chords & Tabs

 

Wanderer Chords & Tabs

Emperor Chords & Tabs

Version: 1 Type: Tab 0 ratings
1 star 2 stars 3 stars 4 stars 5 stars
comments

Wanderer Tab

Emperor's "Wanderer" from the album "Anthems To the welkin at dusk"

transcribed by Serkan Gunturk ( k-gunturk@physics.tamu.edu >

find more tabs at

http://www.geocities.com/SunsetStrip/Venue/8948

*****************************************************************

normal tuning

 riff 1 (2 times)        riff 2
[ Tab from: http://www.guitartabs.cc/tabs/e/emperor/wanderer_tab.html ]
-0-0-0-0---------------|--------------------------|-------------------
-0-0-0-0-7-----7-8-7-7-|--3-3-4-3-4-3-------------|-------------------
-9-9-9-9---7---7---7-7-|--2-2---2---2-3-2---------|-------------------
-9-9-9-9-----9-9---9-9-|--0-0---0---0-----5-5-4-4-|-------------------
-7-7-7-7-----7-9---9-9-|--0-0---0---0-----3-3-4-4-|-------------------
-0-0-0-0-----7-7---7-7-|------------------3-3-2-2-|-------------------


 riff 3

---------------------|-------------7-10-14----------------------------
-8-7-8-7-8---7-8-7-7-|-8-7-8-7-8--------------------------------------
-9-9-9-9-9---7---7-7-|------------------------------------------------
-9-9-9-9-9-9-9---9-9-|-----------9------------------------------------
-7-7-7-7-7-9-9---9-9-|------------------------------------------------
-7-7-7-7-7-7-7---7-7-|------------------------------------------------
Comments