Emit-remmus - Buck Rogers Chords & Tabs

 

Buck Rogers Chords & Tabs

Emit-remmus Chords & Tabs

Version: 1 Type: Bass Tab 0 ratings
1 star 2 stars 3 stars 4 stars 5 stars
comments

Buck Rogers Bass Tab

   
http://www.emit-remmus.tk

BASS TAB
title: Buck Rogers
artist: emit-remmus
album: ?
tabber: basket-case
notes: all is on one string!!

Intro - X2
g---------------------------------
d---------------------------------
a---------------------------------
e-0-0-0-0-0-0-0-0-0-4-4-4-5-5-5-5-

Verse - X4
g---------------------------------
d---------------------------------
a---------------------------------
e-0-0-0-0-0-0-0-0-0-4-4-4-5-5-5-5-

Bridge
g-------------------|------
d-------------------|------
a-------------------|------
e-5-5-5-5-5-5-5-5-7-|-0/12-

Chorus
g-----------------------------------------------------------------
d-----------------------------------------------------------------
a-----------------------------------------------------------------
e-0-0-0-0-0-0-0-0-7-7-7-7-7-7-7-7-9-9-9-9-9-9-9-9-5-5-5-5-5-5-5-5-

Chorus
g-------------------------------------------------
d-------------------------------------------------
a-------------------------------------------------
e-0-0-0-0-0-0-0-0-7-7-7-7-7-7-7-7-5-5-5-5-5-5-5-5-

End Chorus X2
g-----------------------------------
d-----------------------------------
a-----------------------------------
e-0-0-0-0-0-0-0-0-0-0-4-4-4-5-5-5-5-

Verse X4
g---------------------------------
d---------------------------------
a---------------------------------
e-0-0-0-0-0-0-0-0-0-4-4-4-5-5-5-5-

Bridge
g-------------------|------
d-------------------|------
a-------------------|------
e-5-5-5-5-5-5-5-5-7-|-0/12-
[ Tab from: http://www.guitartabs.cc/tabs/e/emit_remmus/buck_rogers_btab.html ]
Chorus X 2
g-----------------------------------------------------------------
d-----------------------------------------------------------------
a-----------------------------------------------------------------
e-0-0-0-0-0-0-0-0-7-7-7-7-7-7-7-7-9-9-9-9-9-9-9-9-5-5-5-5-5-5-5-5-

Chorus
g-------------------------------------------------
d-------------------------------------------------
a-------------------------------------------------
e-0-0-0-0-0-0-0-0-7-7-7-7-7-7-7-7-5-5-5-5-5-5-5-5-

Interlude  
g---------------------------------
d---------------------------------
a---------------------------------
e-2-2-2-2-2-4-5-5-5-5-5-8-8-8-8-8-

g---------------------------------
d---------------------------------
a---------------------------------
e-2-2-2-2-2-4-5-5-5-5-5-5-5-5-5-5-

Interlude part II x2
g---------------------------------
d---------------------------------
a---------------------------------
e-0-0-0-0-0-0-0-0-0-0-0-0-0-0-0-0-

Chorus x2
g-----------------------------------------------------------------
d-----------------------------------------------------------------
a-----------------------------------------------------------------
e-0-0-0-0-0-0-0-0-7-7-7-7-7-7-7-7-9-9-9-9-9-9-9-9-5-5-5-5-5-5-5-5-

Chorus
g-------------------------------------------------
d-------------------------------------------------
a-------------------------------------------------
e-0-0-0-0-0-0-0-0-7-7-7-7-7-7-7-7-5-5-5-5-5-5-5-5-

Outro
g---------------------------------
d---------------------------------
a---------------------------------
e-0-0-0-0-0-0-0-0-0-4-4-4-5-5-5-5-

follow song for rhythm, works with feeders version too!!?
hav fun!
Comments