Eminem - Without Me Chords & Tabs

 

Without Me Chords & Tabs

Eminem Chords & Tabs

Version: 10 Type: Tab 0 ratings
1 star 2 stars 3 stars 4 stars 5 stars
comments

Without Me Tab

I'm pretty sure this is the right tab

  E--------------
  B--------------
  G--------------
  D--------------
  A---3-6-5-3----
  E-0---------3--
[ Tab from: http://www.guitartabs.cc/tabs/e/eminem/without_me_tab_ver_10.html ]
  E--------------
  B--------------
  G--------------
  D--------------
  A---------1----
  E-0-3-1-3---3--

  E--------------
  B--------------
  G--------------
  D--------------
  A-------3------
  E-0-3-2---0----

  E--------------
  B--------------
  G--------------
  D--------------
  A--------------
  E-0-3-2-0------
Comments