Eminem - Stan Chords & Tabs

 

Stan Chords & Tabs

Eminem Chords & Tabs

Version: 7 Type: Tab 0 ratings
1 star 2 stars 3 stars 4 stars 5 stars
comments

Stan Tab

Eminem,Stan.
Tabbed by Hailie Jade,Blink182rocks_@hotmail.com.
  
First Tab
e :-----------------------------
b :-----------------------------
g :-----------------------------
d :---------2--2--4-------------
a :------------------------2---1
e :----4--4-----------2---------
[ Tab from: http://www.guitartabs.cc/tabs/e/eminem/stan_tab_ver_7.html ]
Repeat this three times and on the fourth time play:

Second Tab
e :-------------------------
b :-------------------------
g :-------------------------
d :----------2----2-3---3--2
a : ------------------------
e :---4---4----------------

You play that pattern (tab 1 3 times then tab 2) through the whole song! 

:: Ultimate Guitar Archive :: 
http://www.ultimate-guitar.com 

Comments