Eminem - Stan Chords & Tabs

 

Stan Chords & Tabs

Eminem Chords & Tabs

Version: 6 Type: Tab 0 ratings
1 star 2 stars 3 stars 4 stars 5 stars
comments

Stan Tab

Eminem, Stan.
Tabbed by Richard Ycasiano, richeez@hotmail.com.
  
I think this should be right way. 

1-----------------------------------------------------
2-----------------------------------------------------
3-----------------------------------------------------
4-------------------------------Repeat 3x-------------
5------0--0-1--1--------------------------------------
6-0--0-----------3--2--0------------------------------
[ Tab from: http://www.guitartabs.cc/tabs/e/eminem/stan_tab_ver_6.html ]
                   After repeated 3x
1-----------------------------------------------------
2-----------------------------------------------------
3-----------------------------------------------------
4-----------------------------------------------------
5------0--0-1---0-------------------------------------
6-0--0-------------3-2-0------------------------------

E-mail me if I didn't do it correctly. 
:: Ultimate Guitar Archive :: 
http://www.ultimate-guitar.com 

Comments