Eminem - Sing For The Moment Chords & Tabs

 

Sing For The Moment Chords & Tabs

Eminem Chords & Tabs

Version: 6 Type: Tab 0 ratings
1 star 2 stars 3 stars 4 stars 5 stars
comments

Sing For The Moment Tab

Eminem
Sing for the moment
Tabbed by A.C.L.(tlosapro@aol.com)

Intro
e)--4---4---3---3----|--4---4---3---3---|
B)--6---6---4---4----|--3---3---2---2---|
G)----5---5---5---5--|----5---5---5---5-|
D)-------------------|------------------|
A)-------------------|------------------|
E)-------------------|------------------|


e)--4---4---6---6----|--8----6--4-------|
B)--6---6---6---6----|--6----6--6-------|
G)----5---5---5---5--|--5----5--5-------|
D)-------------------|------------------|
A)-------------------|------------------|
E)-------------------|------------------|


e)--4---4---6---6----|--8---8---6---6---|
B)--6---6---6---6----|--6---6---6---6---|
G)----5---5---5---5--|---5----5---5-----|
D)-------------------|------------------|
A)-------------------|------------------|
E)-------------------|------------------|


e)--4---4---6---6----|---8--------------|
B)--6---6---6---6----|---6--------------|
G)----5---5---5---5--|---5--------------|
D)-------------------|------------------|
A)-------------------|------------------|
E)-------------------|------------------|
[ Tab from: http://www.guitartabs.cc/tabs/e/eminem/sing_for_the_moment_tab_ver_6.html ]
Verse
e)------------------|----------------|----------------|------------------|
B)------1-----------|----------------|----------------|------------------|
G)----1-------------|----------------|----------0-----|---1--------3-----|
D)--3--------1------|------------1---|---3------------|------------------|
A)------------------|---4------------|----------------|------------------|
E)------------------|----------------|----------------|------------------|

Chorus
e)--------------------|-----------------------|----------------------|
B)--------------------|-----------------------|----------------------|
G)--------------------|-----------------------|----------------------|
D)---10--------8------|----6---------6--------|---10-----------------|
A)----8--------6------|----4---------8--------|----8-----------5-----|
E)--------------------|-----------------------|----------------3-----|


e)--------------------|-----------------------|----------------------|
B)--------------------|-----------------------|----------------------|
G)--------------------|-----------------------|----------------------|
D)--------------------|-----------------------|----------------------|
A)----6--------8------|-----------------------|----------------------|
E)----4--------6------|----8h9p8h9p8h9p8h9----|----8h9p8h9p8h9p8h9---|
Comments