Eminem - Role Model Chords & Tabs

 

Role Model Chords & Tabs

Eminem Chords & Tabs

Version: 8 Type: Tab 0 ratings
1 star 2 stars 3 stars 4 stars 5 stars
comments

Role Model Tab

artist: eminem
song: role model
album: the slim shady LP

this is all it does through the song and its actually alot of fun to play
e------1----2-1h2p1---1-----
b----2--------------2-------
g-3----------------------3--
d---------------------------
a---------------------------
e---------------------------
[ Tab from: http://www.guitartabs.cc/tabs/e/eminem/role_model_tab_ver_8.html ]
e------1----2-1h2p1---1-----
b----2--------------2-------
g-3----------------------3--
d---------------------------
a---------------------------
e---------------------------

e------1----2-1h2p1---1-----
b----2--------------2-------
g-3----------------------3--
d---------------------------
a---------------------------
e---------------------------
Comments