Eminem - Mockingbird Chords & Tabs

 

Mockingbird Chords & Tabs

Eminem Chords & Tabs

Version: 2 Type: Tab 0 ratings
1 star 2 stars 3 stars 4 stars 5 stars
comments

Mockingbird Tab

These tabs take the place of the piano but I think they r ok. If u have any comments 
me at cazpat1@hotmail.com!!!

Standard Tuning
[ Tab from: http://www.guitartabs.cc/tabs/e/eminem/mockingbird_tab_ver_2.html ]
e|-0-3-3-3-5-3-2-2----0-2-2-3-2-0--|
b|---------------------------------|
g|---------------------------------|
D|---------------------------------|
A|---------------------------------|
E|---------------------------------|

e|-------------0----------------------------------|
b|------------------------------------------------|
g|-4-4-4-4-4-4---4-4-2-0-2-4--4-4-2-0-2-4---------|
D|-----------------------------------------5-4-2--|
A|------------------------------------------------|
E|------------------------------------------------|

And u just keep repeating that. Have fun !!!
Comments