Eminem - Lose Yourself Chords & Tabs

 

Lose Yourself Chords & Tabs

Eminem Chords & Tabs

Version: 9 Type: Tab 0 ratings
1 star 2 stars 3 stars 4 stars 5 stars
comments

Lose Yourself Tab

Eminem- Lose yourself

E--5-1---5-3-0---3-5-1---5--8-5-3--5-1---5-3-0---3-5-----------------|
B------3-------1-------3---------------3-------1------3-0---3-0------|
G---------------------------------------------------------1-----3-1--|
D--------------------------------------------------------------------|
A--------------------------------------------------------------------|
E--------------------------------------------------------------------|
[ Tab from: http://www.guitartabs.cc/tabs/e/eminem/lose_yourself_tab_ver_9.html ]
E--------------------------------------------------------------------|
B--------------------------------------------------------------------|
G----2-2-2-2-2-2-2-0-3-3-3-3-3-3-3-0-2-2-2-2-2-2-2-0-0-3-3-3-3-3-3-3-|
D--0-0-0-0-0-0-0-0---0-0-0-0-0-0-0---0-0-0-0-0-0-0-----0-0-0-0-0-0-0-|
A--------------------------------------------------------------------|
E--------------------------------------------------------------------|

E--------------------------------------------------------------------|
B--------------------------------------------------------------------|
G--0-2-2-2-2-2-2-2-0-0-3-3-3-3-3-3-3-0-2-2-2-2-2-2-2-0-0-3-3-3-3-3-3-|
D----0-0-0-0-0-0-0-----0-0-0-0-0-0-0---0-0-0-0-0-0-0-----0-0-0-0-0-0-|
A--------------------------------------------------------------------|
E--------------------------------------------------------------------|

E-----------|
B-----------|
G--3-0------|
D--0--------|
A-----------|
E-----------|
Comments